Stop Censorship
 
 

 
 1-9 a b c d e f g h i j k l m n o p q r s t u v w x y z
   Collective Soul - Shine Tab    


This tab is 100% correct, tuned one step lower than concert pitch.

I looked all around for the tab to play this song right, and i never
found one that sounded even close, so i took a little time and figured
it out myself, and its perfect.


h=hammer on
/=slide up
=slide down
~=bend
x=mute

Intro,Reapeat three times:
Eb |---------------------------------------------------------------------------------------------------
Bb |---------------------------------------------------------------------------------------------------
Gb |--------9h11----11----9---7-7---7-------9h11----11----14---7---9---11--5---0-0-5---0-5-0-5-0-0-5-0
Db |--------0---0-0-0---0-0-0-0-0-7-0---0-0-0---0-0-0---0-0-0-0-0-0-0-0-0-0-5---0-0-5---0-5-0-5-0-0-5-0
Ab |--------0---0-0-0---0-0-0-0-0-0-0---0-0-0---0-0-0---0-0-0-0-0-0-0-0-0-0-3---0-0-3---0-3-0-3-0-0-3-0
Db |--------0---0-0-0---0-0-0-0-0-0-0---0-0-0---0-0-0---0-0-0-0-0-0-0-0-0-0-----0-0-----0---0---0-0---0


---------------------------------------------------------------------------------------------------|
-----8-------8-----8---8-----8---8-----------------------------------------------------------------|
-5-0-7---0-0-7---0-7-0-7-0-0-7-0-7-0---------------------------------------------------------------|
-5-0-5---0-0-5---0-5-0-5-0-0-5-0-5-0---------------------------------------------------------------|
-3-0-5---0-0-5---0-5-0-5-0-0-5-0-5-0---------------------------------------------------------------|
---0-5---0-0-5---0-5-0-5-0-0-5-0-5-0---------------------------------------------------------------|



The yeah part,reapeat twice:
|---------------------------------------------------------------------------------------------------|
|---------------------------------------------------------------------------------------------------|
|---------------------------------------------------------------------------------------------------|
|0---0-0-3-0-0-3-0-0-3-0-5x------0---0-0-3-0-0-3-0-0-3-0-5x--6x-------------------------------------|
|0---0-0-3-0-0-3-0-0-3-0-5x------0---0-0-3-0-0-3-0-0-3-0-5x--6x-------------------------------------|
|0---0-0-3-0-0-3-0-0-3-0-5x------0---0-0-3-0-0-3-0-0-3-0-5x--6x-------------------------------------|




Chorus, reapeat four times:
|---------------------------------------------------------------------------------------------------|
|--------------7~~~8-----------7--------------------------------------------------------------------|
|5-------5-----7---------------7-----------------------11------14-----------------------------------|
|5-------5-----5---------------5-------0-------0-----0---0-0---0---0-0------------------------------|
|3-------3-----5---------------5-------0-------0-----0---0-0---0---0-0------------------------------|
|--------------5---------------5-------0-------0-----0---0-0---0---0-0------------------------------|