Stop Censorship
 
 

 
 1-9 a b c d e f g h i j k l m n o p q r s t u v w x y z
   Collective Soul - Shine Tab    

tuned a half-step down
Eb,Ab,Db,Gb,Bb,Eb

Main Riff (intro and verse)
Eb|-----------------------------------------------------------
Ab|------------------------------10---------------------------
Db|--9h11--11-11-9-7-7-7-9h11-11----7-7-9-11----5-5-5---------
Gb|--0--0--0--0--0-0-0-0-0-0---0----0-0-0--0----5-5-5--5-5-5--
Bb|---------------------------------------------3-3-3--5-5-5--
Eb|----------------------------------------------------5-5-5--

second riff (the yeah riff)
Eb|--------------------------------------------------
Ab|--------------------------------------------------
Db|--------------------------------------------------repeat twice
Gb|--------------------------------------------------when he says yea
Bb|--0-0-0-3-0-0-3-0-0-3-5--0-0-0-3-0-0-3-0-0-3-5-6--
Eb|--0-0-0-3-0-0-3-0-0-3-5--0-0-0-3-0-0-3-0-0-3-5-6--

Chorus riff (heaven let your lights shine down)
Eb|-----------------------------------------------------
Ab|-----------------------------------------------------
Db|-5-5-5-----------------------------------------------
Gb|-5-5-5-5-5-5-0-0-0-3-3-3-----------------------------
Bb|-3-3-3-5-5-5-0-0-0-3-3-3-----------------------------
Eb|-------5-5-5-0-0-0-3-3-3-----------------------------

the timing on the chorus you have to listen to it to figure it out but these tabs are almost exact to the recording on the greatest hits album. i will post the solo later. but amazing song and amazing band.