Stop Censorship
 
 

 
 1-9 a b c d e f g h i j k l m n o p q r s t u v w x y z
   Collective Soul - Shine Tab    

drop d tuning and 1/2 step down
Slight distortion

Verse repeat 4 times

---------------------------------------------------------------------------------
---------------------------------------------------------------------------------
--9--11--11--11-----9--9--7--7--7---9--11--11--11----11--14--7--7--9--11---------
--0---0---0---0-----0--0--0--0--0---0---0---0---0-----0---0--0--0--0---0---------
---------------------------------------------------------------------------------
---------------------------------------------------------------------------------

---------------------------------------------------------------------------------
---------------------------------------------------------------------------------
----------------------------------------7--0--0--7---0---7--7--7---0--7--7-------
--5----5--5--5----5--5--5----5--5--5----5--0--0--5---0---7--5--5---0--5--5-------
--3----0--0--3----0--3--3----0--3--3---------------------------------------------
---------------------------------------------------------------------------------

repeat 2 times
---------------------------------------------------------------------------------
---------------------------------------------------------------------------------
---------------------------------------------------------------------------------
-0---0--0---3--0--0---3--0--0--3--3--5--0--0--0---3--0--0---3--0--0--3--3--5--6--
-0---0--0---3--0--0---3--0--0--3--3--5--0--0--0---3--0--0---3--0--0--3--3--5--6--
-0---0--0---3--0--0---3--0--0--3--3--5--0--0--0---3--0--0---3--0--0--3--3--5--6--

Chorus

Cords
C--C--G--G--D--D--D--D