Stop Censorship
 
 

 
 1-9 a b c d e f g h i j k l m n o p q r s t u v w x y z
   Collective Soul - Shine Tab    

Collective Soul
Shine
Tabbed by Mike C.
...AND GOD SAID LET THERE BE ROCK!

I think it is tuned down a semitone, then the sixth string tuned
down a further 2 semitones

LEGEND:

h: hammer on
p: pull off
b: bend («,¬,full.etc..)
/: slide to
: slide back

Riff [A] - INTRO/VERSE (Moderately slow rock õ: 75)

I suggest you tune your guitar: low to high: Db. Ab, Db, Ab, Bb,Eb

E|----------------------------------|------------------------------------|--
B|----------------------------------|------------------------------------|--
G|-7h9------9----7----5-5-0-5---5-0-|-7h9--9-9-9---9/12---0-5-0-7-0-9-0--|--
D|-0----0-0-0--0-0-0--0-0-0-0---0-0-|-0----0-0-0---0--0-0-0-0-0-0-0-0-0--|--
A|----------------------------------|------------------------------------|--
E|----------------------------------|------------------------------------|--

-|-------------------------------|---------------------------------------|
-|-------------------------------|---------------------------------------|
-|-3--0-0-3--0-3-0-3-0-0-3-0-3-0-|-10--0-0-10--0-10-0-10-0-0-10-0-10-0---|
-|-5--0-0-5--0-5-0-5-0-0-5-0-5-0-|-12--0-0-12--0-12-0-12-0-0-12-0-12-0---|
-|-------------------------------|---------------------------------------|
-|-------------------------------|---------------------------------------|


Riff B - PRE-CHORUS

-|-----------------------------|----------------------------------|
-|-----------------------------|----------------------------------|
-|-----------------------------|----------------------------------|
-|-0----------------------5----|--0----------------------5---6----|
-|-0--0-0-3p0-0-3p0-0-3-0-5----|--0--0-0-3p0-0-3p0-0-3-0-5---6----|
-|-0--0-0-3p0-0-3p0-0-3-0-5----|--0--0-0-3p0-0-3p0-0-3-0-5---6----|



Riff C - CHORUS

Whoa Heaven let your light shine down
-|------------------------------------|---------------------------------|
-|------------------------------------|---------------------------------|
-|------------------------------------|-0-----------0-0------0--0-------|
-|-10-----------5--------------5------|-0-----0-----0-0------0--0---0-0-|
-|-10--------105--------------5--5-0-|-0-----0------------0-0--0---0-0-|
-|-10--------105--------------5--5-0-|-0-----0------------0-0--0-------|
| |
| Rhytim Guitar (electric w/distortion) |
-|------------------------------------|---------------------------------|
-|------------------------------------|---------------------------------|
-|------------------------------------|---------------------------------|
-|------------------------------------|---------------------------------|
-|--------------9-(9)b«---------------|-----------------9------12-------|
-|-------------------------------10---|---------------------------------Ù


Ridd D - GUITAR SOLO (double time õ: 150)

elect. w/distortion
-|-----------------------|-----------------------|-----------------------|--
-|-------10----10--------|-10---10---------10----|-12-10---12-10---12-10-|--
-|-------10----10--------|-10---10---------10----|-12-10---12-10---12-10-|--
-|-10-12----12-----10-12-|----12-----10-12----12-|-------12------12------|--
-|-----------------------|-----------------------|-----------------------|--
-|-----------------------|-----------------------|-----------------------|--
////
-|-----------------------|------------------------------------------------|--
-|----12--10-------------|------------------------------------------------|--
-|-12-12--10----10-------|---------------------------------------10-------|--
-|-12--------12----------|-----------------------10--10h12-10h12----12----|--
-|-------------------12-|-------10--10h12p10h12---12---------------------|--
-|-----------------------|--10h13--12-------------------------------------|--
..................
-|---------------------------10------13p10h13h15p10h13--13-bfull----------13-
-|------------10--10h13-10h13--13-10-------------------(13)bf----------------
-|-10h12-10h12--12-----------------------------------------------------------
-|---------------------------------------------------------------------------
-|---------------------------------------------------------------------------
-|---------------------------------------------------------------------------
....Ü
-|-13--(13)---10-----10------------------------13---------15bf(15)---------|-
-|---------------13--------------------13---15------15-13------------13--15-|-
-|-------------------------13---13-13---------------------------------------|-
-|--------------------------x-----------------------------------------------|-
-|--------------------------------------------------------------------------|-
-|--------------------------------------------------------------------------|-

-|-13-------------15bf(15)-------|--------------15fb(15)------|--------------
-|-----15-13-15------------13-15-|-15-13-15-15----------13-15-|--------------
-|-------------------------------|----------------------------|--------------
-|-------------------------------|----------------------------|--------------
-|-------------------------------|----------------------------|--------------
-|-------------------------------|----------------------------|--------------

-|--------------16p13-15p-15----13-------|------------------------------------
-|--15-13-15-13--------------15----15p13-|-14p13----13------------------------
-|---------------------------------------|-------14----14-12-14p1310h12p10---
-|---------------------------------------|------------------------------------
-|---------------------------------------|------------------------------------
-|---------------------------------------|------------------------------------
hold...........Ü
-------------------|----------------------|---------------------------------|-
-------------------|----13----------------|---------------10----------------|-
--------------12bf-|-------1212fb(12)--10-|---------------10----------------|-
---12-x-12-10------|----------------------|---12---12--12-----10---12-------|-
-------------------|----------------------|---------------------------------|-
-------------------|----------------------|---------------------------------|-

-|-----------------------------|
-|--12b¬------------10---------|
-|--12b¬--10--------10---------|
-|------------12-12-----12--10-|
-|-----------------------------|
-|-----------------------------|


Riff E - (original tempo)

-|----------------------------------|------------------------------------|--
-|----------------------------------|------------------------------------|--
-|-7h9------9----7----5-5-0-5---5-0-|-7h9--9-9-9---9/12---0-5-0-7-0-9-0--|--
-|-0----0-0-0--0-0-0--0-0-0-0---0-0-|-0----0-0-0---0--0-0-0-0-0-0-0-0-0--|--
-|----------------------------------|------------------------------------|--
-|----------------------------------|------------------------------------|--

-|-------------------------------|----------------------------------|
-|-------------------------------|----------------------------------|
-|-3--0-0-3--0-3-0-3-0-0-3-0-3-0-|--5--0---5--0-5-0-5-0-0-5-0-5-0---|
-|-5--0-0-5--0-5-0-5-0-0-5-0-5-0-|--5--0-0-5--0-5-0-5-0-0-5-0-5-0---|
-|-------------------------------|----------------------------------|
-|-------------------------------|----------------------------------|


Riff F - Coda (double time õ:150)

Let it shine I`m gonna let it shine Heaven let your light
Hey yeah Hey yeah Shine on me
-|------------------------|-------------------------|-----------------------|-
-|------------------------|-------------------------|-----------------------|-
-|------------------------|-------------------------|-----------------------|-
-|-10-10-10-10-10-10-10--|-5--5--5--5--5--5--5-----|-0---0--0--0--0--0--0--|-
-|-10-10-10-10-10-10-10--|-5--5--5--5--5--5--5--0--|-0---0--0--0--0--0--0--|-
-|-10-10-10-10-10-10-10--|-5--5--5--5--5--5--5--0--|-0---0--0--0--0--0--0--|-

shine on me (shine) C`mon and
-|------------------------|-----------------------------|---------------------
-|------------------------|-----------------------------|---------------------
-|------------------------|-----------------------------|---------------------
-|-0--0--0--0--0--0--0--0-|-10--10--10--10--10--10--10-|-5--5--5--5--5--5--5-
-|-0--0--0--0--0--0--0--0-|-10--10--10--10--10--10--10-|-5--5--5--5--5--5--5-
-|-0--0--0--0--0--0--0----|-10--10--10--10--10--10--10-|-5--5--5--5--5--5--5-

shine
-------|
-------|
-------|
--5--5-|
--5--5-|
--5--5-|


GOD BLESS ROCK