Stop Censorship
 
 

 
 1-9 a b c d e f g h i j k l m n o p q r s t u v w x y z
   Collective Soul - The World I Know Tab    

Artist: Collective Soul
Album: Collective Soul
Song: The World I know
Tabbed by: John-Rock Bilodeau

i decided to look up this tab last night and only found one that was relatively good
so i decided to remake the tab and fix it and add the interlude and 2nd guitar part
cause none of the tabs i found had the guitar parts. I`m pretty sure that this tab
is the most correct one now, and its probly about 99% correct. please send any comments
or corrections to jr_bilodeau@hotmail.com


slide up- /
slide down-
strum- ^

D Dsus4 D(add9) A G C
e--2--3------0------------3--0--
B--3--3------3--------2---3--1--
G--2--2------2--------2---0--0--
D--0--0------0--------2---0--2--
A---------------------0---x--3--
E-------------------------3-----



Intro / Verse
e---------------------------------------
B---------------------------------------
G--77777--72--2-2222--44444-4-44/6--66-
D--00000--0--0-0000--00000-0-00/0--00-
A--xxxxx--xx--x-xxxx--xxxxx-x-xx/x--xx-
E--77777--72--2-2222--33333-3-33/5--55-

Prechorus

(Guitar 1)

A ^ ^ ^ ^ ^ ^ ^ ^ ^ G ^ ^ ^ ^ ^ ^ ^ ^ ^ ^

(Guitar 2)

--7------7------7------10----7-------8-7---
----10-----10-----10-----------8---------8-
-------9-------------9------------7--------
---------------------------0---------------
-------------------------------------------
-------------------------------------------


Chorus

D ^ ^ ^ ^ A ^ ^ ^ ^ ^ G ^ ^ ^ ^ ^ D ^ ^ Dsus4 D D(add9)

D ^ ^ ^ ^ A ^ ^ ^ ^ ^ C ^ ^ ^ ^ ^ G ^ ^ ^ ^ ^


Interlude
e--------------------------------------------------
B----------------------10---10p12---12---12---10---
G--9h11------11---11-------------------------------
D-------12p9----9----9----9-------9----9----9----9-
A--------------------------------------------------
E--------------------------------------------------


Outro

(Guitar 1)
E---------------------
B---------------------
G--2-2-2-2--4-4-4-44-
D--0-0-0-0--0-0-0-0- x4
A--x-x-x-x--x-x-x-xx-
E--2-2-2-2--3-3-3-35-

(Guitar 2)
e------5--
B----3----
G--2------
D--------- x29
A---------
E---------

Ending Chord

e--3-
B--3-
G--0-
D--0-
A--x-
E--3-


intro/verse x8
prelude
intro/verse x6
prelude
chorus
intrelude
prelude
chorusx2
outro
ending chord