Stop Censorship
 
 

 
 1-9 a b c d e f g h i j k l m n o p q r s t u v w x y z
   Collective Soul - To Where The River Flows Tab    

dropped d
---------------------------------------------
---------------------------------------------
---------------------------------------------
0---0--2--0--3-------0--2--0--33-------------
0---0--2--0--3-------0--2--0--33-------------
0---0--2--0--3-------0--2--0--33-------------

chorus 1
---------------------------------------------
---------------------------------------------
---------------------------------------------
---5-----------------------------------------
---5-----------------------------------------
---5----------------------------------------- repeat until next verse
find your self, another soul to hold

chorus 2
--------------------------------------------
--------------------------------------------
--------------------------------------------
---7----------------------------------------
---7----------------------------------------
---7----------------------------------------repeat until next verse
longer chorus part
listen to the song youll catch on
unsure of the solo, just alot of pull offs on 12 14 15 i think