Stop Censorship
 
 

 
 1-9 a b c d e f g h i j k l m n o p q r s t u v w x y z
   Collective Soul - Vent Tab    

Hi there, drop half tone your guitar, mail me if for comments deanroland@hotmail.com

INTRO (HIT IT SEVERAL TIMES)
---------------------------------
---------------------------------
---------------------------------
---7-----------------------------
---7-----------------------------
---5-----------------------------

VERSE
------------------------------------
------------------------------------
------------------------------------
-------5-7-0---------------5-7-0----
-5-7-7-------5-0-----5-7-7-------5--
------------------------------------

INTERLUDE
---------------------------------
---------------------------------
----5--5------7-7----------------
----5--5------7-7----------------
----3--3------5-5----------------
---------------------------------

CHORUS
---------------------------------
------------------------7-7-7-7-7
---------------14-------7-7 7 7 7(FAST)
--11-12-12-11-----11----7-7-7-7-7
---------------------------------
---------------------------------

BRIDGE
---------------------------------
---------------------------------
--5----------5-------------------
----7-5-7-7----7-5-7-------------
---------------------------------
---------------------------------

SOLO (USE A LOT OF WAH)
-------------------------------------------------------------
----------------------------13-------------13----------------
-5----------5------------------14-12-14-14----14-12-14-------
---7-5-7-7----7-5-7-(TWICE)----------------------------------
-------------------------------------------------------------
-------------------------------------------------------------

-----------8h10p8---------121212121212--15151515151515--171717171717---------
-8h10p8 (a lot and fast)-----------(scratch it and use wab-------------------
-----------------------------------------------------------------------------
-----------------------------------------------------------------------------
-----------------------------------------------------------------------------
-----------------------------------------------------------------------------

THEN INTERLUDE
CHORUS X2
VERSE

I HOPE U FIND IT USEFUL MAIL ME IF NEED