Stop Censorship
 
 

 
 1-9 a b c d e f g h i j k l m n o p q r s t u v w x y z
   Collective Soul - When The Water Falls Tab    







collctive soul
when the water falls
Tabbed by jdanz
Email ghojdanz@yahoo.com

I`m sure everything is correct except FILL B. It`s hard to hear that
bit but I play it as listed. CS have three guitars playing this baby
but it really isn`t needed, so I didn`t split it into Guitar1, 2, 3.
This a cool song, and I`ve heard Ed play it acoustically all by himself
and it was even better.

INTRO add this 3rd time through
e|---------------------------------|------------
B|---------------------------------|------------
G|---------------------------------|------------
D|---------------------------------|-0h11-------
A|---11-12-0---12-11-0---11-0h9-9--|-----12-11--
E|-12--------12--------12----------|------------

FIG. A
e|---------------------------------------
B|---------------------------------------
G|---------------------------------------
D|----------------------------0h11-------
A|-12-0-0-12-11-0-0-11-9-0-0------12-11--
E|---------------------------------------

Repeat these as desired:
FILL A FILL B
e|-----12----12-- e|--4-4-5-5-5-7-7-7-5-4h5-5-5---
B|--10----10----- B|--5-5-5-5-5-5-5-5-5-5---5-5---
G|--------------- G|------------------------------
D|--------------- D|------------------------------
A|--------------- A|------------------------------
E|--------------- E|------------------------------

SOLO
e|------5p4-4-5--4-5--4-5--5-7--5-4--5p4----------------5p4-4--------
B|--5-7-----------------------------------5--3-5--5--7---------------
G|-------------------------------------------------------------------
D|-------------------------------------------------------------------
A|-------------------------------------------------------------------
E|-------------------------------------------------------------------

e|--5--4-5--4-5--5-7-5-4--5p4----------------------------------------
B|----------------------------5--5-5-5/7--7-7-7/9--9-9-9/10--12-14~--
G|-------------------------------------------------------------------
D|-------------------------------------------------------------------
A|-------------------------------------------------------------------
E|-------------------------------------------------------------------

add;managok city

(