Stop Censorship
 
 

 
 1-9 a b c d e f g h i j k l m n o p q r s t u v w x y z
   Collective Soul - Where The River Flows Tab    

Artist: Collective Soul
Title: Where The River Flows
Tuning: Drop C
Tabed By: Duthman

INTRO/CHORUS
D|------------------------------|
A|------------------------------|
F|------------------------------|
C|-0--x--0-2-0-3--x--0-2-0-3-3--|
G|-0--x--0-2-0-3--x--0-2-0-3-3--|
C|-0--x--0-2-0-3--x--0-2-0-3-3--|


VERSE ONE
D|-------------------------------------------------------------------|
A|-------------------------------------------------------------------|
F|-------------------------------------------------------------------|
C|-5-5-5-5-5-5-5-5-5-5-5-5-5-5-5-5-5-5-5-5-5-5-5-5-5-5-5-5-5-5-5-5-5-|
G|-5-5-5-5-5-5-5-5-5-5-5-5-5-5-5-5-5-5-5-5-5-5-5-5-5-5-5-5-5-5-5-5-5-|
C|-5-5-5-5-5-5-5-5-5-5-5-5-5-5-5-5-5-5-5-5-5-5-5-5-5-5-5-5-5-5-5-5-5-|
(Palm Mute)

VERSE TWO
D|-------------------------------------------------------------------|
A|-------------------------------------------------------------------|
F|-------------------------------------------------------------------|
C|-7-7-7-7-7-7-7-7-7-7-7-7-7-7-7-7-5-5-5-5-5-5-5-5-5-5-5-5-5-5-5-5---|
G|-7-7-7-7-7-7-7-7-7-7-7-7-7-7-7-7-5-5-5-5-5-5-5-5-5-5-5-5-5-5-5-5---|
C|-7-7-7-7-7-7-7-7-7-7-7-7-7-7-7-7-5-5-5-5-5-5-5-5-5-5-5-5-5-5-5-5---|
(Palm Mute)

SOLO (Play Fast)
D|-------------------------------------------|
A|-------------------------------------------|
F|-------------------------------------------|
C|-------------------------------------7-----|
G|7--5--5-5-5-5-5-5--7--5--8--5--7--5-----5--|
C|-------------------------------------------|x5(I think)


D|----------------------------------------------|
A|----------------------------------------------|
F|----------------------------------------7-----|
C|--7--5---5-5-5-5-5-7--5--8--7--5--7--5----5---|
G|----------------------------------------------|
C|----------------------------------------------|