Stop Censorship
 
 

 
 1-9 a b c d e f g h i j k l m n o p q r s t u v w x y z
   Collective Soul - Why Tab    

Collective Soul
Why
Tabbed By: Mike C.
...AND GOD SAID LET THERE BE ROCK!

Intro:With muting
Just hit this same chord according to beat which is really simple, just listen to the record
E--------------
B--------------
G-2------------
D-0------------
A-0------------
D-0-----------

Verse:
pm- - - - - - - - - - -
E----------------------
B----------------------
G----------------------
D-0-0-0-0-0-0-0-0-0-0-0
A-0-0-0-0-0-0-0-0-0-0-0
D-0-0-0-0-0-0-0-0-0-0-0

Prechorus:
E--------------3-3-3---
B-2-2--2--2----3-3-3---
G-4-4--4--4-0--0-0-0--2
D-4-4--4--4-0--0-0-0--0
A-2-2--2--2-X------X--0
D-----------5------5--0

Chorus: just hit each chord once
E-------------------------
B-------------------------
G------------------------2
D-/9-----------5---------0
A-/9-----------5---------0
D-/9-----------5---------0
there is this neat tapping bit that ross does but I have only a bit
figured out
so.......I finish as soon as possible

Solo: (with wah-wah)
E----------------9-10----------------9-10-------------------
B--------------------------------------------------------10^
G----------10-12---------------10-12---------------10-12----
D----11-12---------------11-12---------------11-12----------
A-12------------------12------------------12----------------
D-----------------------------------------------------------

E----------------9-10----------------9-10-9-10-9-10-9-10-12-12
B-------------------------------------------------------------
G----------10-12---------------10-12--------------------------
D----11-12---------------11-12--------------------------------
A-12------------------12--------------------------------------
D-------------------------------------------------------------

Rapidly pick this part
E----------------------------------------------------------
B-14-14-14-14-15-15-15-15-17-17-17-17-3-3-3-3--------------
G-11-11-11-11-12-12-12-12-14-14-14-14-2-2-2-2-----------12^
D---------------------------------------------7^--------12^
A--------------------------------------------------9^------
D----------------------------------------------------------