Stop Censorship
 
 

 
 1-9 a b c d e f g h i j k l m n o p q r s t u v w x y z
   Collective Soul - Why Part Tab    

This is played in drop d. I haven`t come up with the whole song here
but here is the basic chords to it. Any thing inside () means its a bass string
But you can play it in there anyway
---------------------------------------------------
---------------------------------------------------
---------------------------------------------------
------00-0-00-0------------------------------------
------00-0-00-0------------------------------------
------00-0-00-0-(000000000000000000000000000000000)
In the air I`m tasting your perfection....ect

----------------------------------------------------
---------------------------------------------------
---------------------------------------------------
------9--------------------5-----------0-----------
------9--------------------5-----------0-----------
------9--------------------5-----------0-----------
As I crawl beneath this torture you adore
I fall face to face with my scars you`ve ignored
so tell me whyyyyy..........I feel this way