Stop Censorship
 
 

 
 1-9 a b c d e f g h i j k l m n o p q r s t u v w x y z
   Colplay - High Speed Tab    


Coldplay
High Speed


Bb6/Eb Csus2/F Bb6/Eb Csus2/F
|------6-6-5-5-3-3-----8-8-6-6-5-5--|------6-6-5-5-3-3-----8-8-6-6-5-5--|
|-----------------------------------|-----------------------------------|
|--3-3-------------5-5--------------|--3-3-------------5-5--------------|
|-----------------------------------|-----------------------------------|
|-----------------------------------|-----------------------------------|
|-----------------------------------|-----------------------------------|

Bb6/Eb Csus2/F Bb6/Eb Csus2/F
|------6-6-5-5-3-3-----8-8-6-6-5-5--|------6-6-5-5-3-3-----8-8-6-6-5-5--8---|
|-----------------------------------|-----------------------------------8---|
|--3-3-------------5-5--------------|--3-3-------------5-5--------------5---|
|-----------------------------------|---------------------------------------|
|-----------------------------------|---------------------------------------|
|-----------------------------------|---------------------------------------|

Gsus2
|-----------------------------------------|
|------6---63---31---1------------------|
|----7---7-----4-----2---0-----------0-0--|
|-------------------------------0--2------| x2
|---------------------------0h2-----------|
|-----------------------------------------|

VERSE 1:

Ebmaj7 Gsus2
Can anybody fly this thing?

Gsus2
|-----------------------------------------|
|------6---63---31---1------------------|
|----7---7-----4-----2---0-----------0-0--|
|-------------------------------0--2------|
|---------------------------0h2-----------|
|-----------------------------------------|

Ebamj7 Ebmaj7* Ebmaj7** Gsus2
Before my head explodes, Before my head starts to ring,

Gsus2
|-----------------------------------------|
|------6---63---31---1------------------|
|----7---7-----4-----2---0-----------0-0--|
|-------------------------------0--2------|
|---------------------------0h2-----------|
|-----------------------------------------|

Ebmaj7* Ebmaj7** Gsus2
We`ve been living life, inside a bubble,

Gsus2
|-----------------------------------------|
|------6---63---31---1------------------|
|----7---7-----4-----2---0-----------0-0--|
|-------------------------------0--2------|
|---------------------------0h2-----------|
|-----------------------------------------|

Bb6 Cadd9 Gsus2
We`ve been living life inside a bubble,

Gsus2
|---------------------------------------------|
|------6---63---31---1--------12----12------|
|----7---7-----4-----2---0--/12----12----12--|
|---------------------------------------------|
|---------------------------------------------|
|---------------------------------------------|

CHORUS:

Bb6/Eb Csus2/F Bb6/Eb
And confidence in you, is confidence in me,
Csus2/F Gadd9
Is confidence in hi - igh speed

Bb6/Eb Csus2/F Bb6/Eb
Csus2/F
|-----------------------------------------------|-----------------------------------------------|
|----3----------3-----------5----------5--------|----3----------3-----------5----------5--------|
|------0---0------0---0-------0---0------0---0--|------0---0------0---0-------0---0------0---0--|
|--3-----3----3-----3-----5----------5-----5----|--3-----3----3-----3-----5----------5-----5----|
|-----------------------------------------------|-----------------------------------------------|
|-----------------------------------------------|-----------------------------------------------|

VERSE 2: Similar lead but with a few notes played over the Ebmaj7`s, they
should be easy to work out

Ebmaj7 Gsus2
Can anybody stop this thing?
Ebmaj7 Ebmaj7* Ebmaj7** Gsus2
Before my head explodes, before my head starts to ring,
Ebamj7* Ebmaj7** Gsus2
We`ve been living life inside a bubble,
Bb6 Cadd9 Gsus2
We`ve been living life inside a bubble,

CHORUS 2: Again similar lead

Bb6/Eb Csus2/F Bb6/Eb
And confidence in you, is confidence in me,
Csus2/F Gadd9
Is confidence in hi - igh speed, In high speed, high speed

In high speed, high speed

OUTRO: Play the intro riff over this

Bb6/Eb Csus2/F
And high speed you want,

High speed you want,
Cadd9
High speed you want,
Gsus2
High speed you want,

Hope you get it, it`s kind of hard at frist. -Ja#$% Ch@#$%