Stop Censorship
 
 

 
 1-9 a b c d e f g h i j k l m n o p q r s t u v w x y z
   Constellation - Halloween Theme Tab    

-------------------------------------------------------------------------------
Halloween Theme - Constellation
-------------------------------------------------------------------------------

By:m1j0y3korn@aol.com


e|-21-------21-------21----22----|
B|----19-19----19-19----19----19-|
G|-------------------------------|
D|-------------------------------|
A|-------------------------------| x4
E|-------------------------------|

e|-18-------18-------18----19----|
B|----16-16----16-16----16----16-|
G|-------------------------------|
D|-------------------------------|
A|-------------------------------| x4
E|-------------------------------|

e|-15-------15-------15----16----|
B|----13-13----13-13----13----13-|
G|-------------------------------|
D|-------------------------------|
A|-------------------------------| x4
E|-------------------------------|

e|-18-------18-------18----19----|
B|----16-16----16-16----16----16-|
G|-------------------------------|
D|-------------------------------|
A|-------------------------------| x4
E|-------------------------------|

=================================================================================