Stop Censorship
 
 

 
 1-9 a b c d e f g h i j k l m n o p q r s t u v w x y z
   Constellation - One Hell Of A Ride (Lead) Tab    

-------------------------------------------------------------------------------
One Hell Of A Ride (Lead) - Constellation
-------------------------------------------------------------------------------
key of B major
By:m1j0y3korn@aol.com

~ = bend note
4x
4x = hit that note then stop
2x


Intro
e|----------------------------------------------------|
B|-4444445544444--------------------------------------|
G|-4444444444444-22224444444-1111112211111-4444444444-|
D|-2222222222222-22222222222-2222222222222-4444444444-|
A|---------------00000000000-0000000000000-2222222222-|
E|----------------------------------------------------|

e|-------------------------------------------------------------------|
B|-4444445544444----------------------------------------44445544444x-|
G|-4444444444444-22224444444-1111112211111-4444444444---44444444444x-|
D|-2222222222222-22222222222-2222222222222-4444444444---22222222222x-|
A|---------------00000000000-0000000000000-2222222222----------------|
E|-------------------------------------------------------------------|

Verse
e|--------------------------------------------------------|
B|--------------------------------------------------------|
G|-11111111-99-8888-999-88-6666-888-66-4444-6666-3333/4/3-|
D|--x-x-x-x-xx-xxxx-xxx-xx-xxxx-xxx-xx-xxxx-xxxx-xxxx/x/x-|
A|--9-9-9-9-77-6666-777-66-4444-666-44-2222-4444-1111/2/1-|
E|--------------------------------------------------------|

e|-------------------------------------------------------|
B|-------------------------------------------------------|
G|-11111111-99-8888-999-88-6666-111111111111111111111111-|
D|--x-x-x-x-xx-xxxx-xxx-xx-xxxx--x-x-x-x-x-x-x-x-x-x-x-x-|
A|--9-9-9-9-77-6666-777-66-4444--9-9-9-9-9-9-9-9-9-9-9-9-|
E|-------------------------------------------------------|

e|--------------------------------------------------------|
B|--------------------------------------------------------|
G|-11111111-99-8888-999-88-6666-888-66-4444-6666-3333/4/3-|
D|--x-x-x-x-xx-xxxx-xxx-xx-xxxx-xxx-xx-xxxx-xxxx-xxxx/x/x-|
A|--9-9-9-9-77-6666-777-66-4444-666-44-2222-4444-1111/2/1-|
E|--------------------------------------------------------|

e|-----------------------------------------------------|
B|-----------------------------------------------------|
G|-11111111-99-8888-999-88-6666-999999999/111111111111-|
D|--x-x-x-x-xx-xxxx-xxx-xx-xxxx-xxxxxxxxx/-x-x-x-x-x-x-|
A|--9-9-9-9-77-6666-777-66-4444-777777777/-9-9-9-9-9-9-|
E|-----------------------------------------------------|

Little Breakdown
e|------------------------------------------------------------------|
B|------------------------------------------------------------------|
G|-4-44-66-888-6666--4-44-66-888-6666--4-44-66-888-6666-88888888888-|
D|-x-xx-xx-xxx-xxxx--x-xx-xx-xxx-xxxx--x-xx-xx-xxx-xxxx-xxxxxxxxxxx-|
A|-2-22-44-666-4444--2-22-44-666-4444--2-22-44-666-4444-66666666666-|
E|------------------------------------------------------------------|

Verse
e|--------------------------------------------------------|
B|--------------------------------------------------------|
G|-11111111-99-8888-999-88-6666-888-66-4444-6666-3333/4/3-|
D|--x-x-x-x-xx-xxxx-xxx-xx-xxxx-xxx-xx-xxxx-xxxx-xxxx/x/x-|
A|--9-9-9-9-77-6666-777-66-4444-666-44-2222-4444-1111/2/1-|
E|--------------------------------------------------------|

e|-------------------------------------------------------|
B|-------------------------------------------------------|
G|-11111111-99-8888-999-88-6666-111111111111111111111111-|
D|--x-x-x-x-xx-xxxx-xxx-xx-xxxx--x-x-x-x-x-x-x-x-x-x-x-x-|
A|--9-9-9-9-77-6666-777-66-4444--9-9-9-9-9-9-9-9-9-9-9-9-|
E|-------------------------------------------------------|

e|--------------------------------------------------------|
B|--------------------------------------------------------|
G|-11111111-99-8888-999-88-6666-888-66-4444-6666-3333/4/3-|
D|--x-x-x-x-xx-xxxx-xxx-xx-xxxx-xxx-xx-xxxx-xxxx-xxxx/x/x-|
A|--9-9-9-9-77-6666-777-66-4444-666-44-2222-4444-1111/2/1-|
E|--------------------------------------------------------|

e|-----------------------------------------------------|
B|-----------------------------------------------------|
G|-11111111-99-8888-999-88-6666-999999999/111111111111-|
D|--x-x-x-x-xx-xxxx-xxx-xx-xxxx-xxxxxxxxx/-x-x-x-x-x-x-|
A|--9-9-9-9-77-6666-777-66-4444-777777777/-9-9-9-9-9-9-|
E|-----------------------------------------------------|

Chorus
e|------------------------------------|
B|------------------------------------|
G|---------9999999---------1111111111-|
D|-6666666-9999999-9999999--x-x-x-x-x-|
A|-6666666-7777777-9999999--9-9-9-9-9-| x3
E|-4444444---------7777777------------|

e|---------------------------------------------------------|
B|---------------------------------------------------------|
G|---------9999999---------8888888-666666666666-9999999999-|
D|-6666666-9999999-9999999-8888888-666666666666-9999999999-|
A|-6666666-7777777-9999999-6666666-444444444444-7777777777-|
E|-4444444---------7777777---------------------------------|

Little Breakdown
e|------------------------------------------------------------------|
B|------------------------------------------------------------------|
G|-4-44-66-888-6666--4-44-66-888-6666--4-44-66-888-6666-88888888888-|
D|-x-xx-xx-xxx-xxxx--x-xx-xx-xxx-xxxx--x-xx-xx-xxx-xxxx-xxxxxxxxxxx-|
A|-2-22-44-666-4444--2-22-44-666-4444--2-22-44-666-4444-66666666666-|
E|------------------------------------------------------------------|

Verse
e|--------------------------------------------------------|
B|--------------------------------------------------------|
G|-11111111-99-8888-999-88-6666-888-66-4444-6666-3333/4/3-|
D|--x-x-x-x-xx-xxxx-xxx-xx-xxxx-xxx-xx-xxxx-xxxx-xxxx/x/x-|
A|--9-9-9-9-77-6666-777-66-4444-666-44-2222-4444-1111/2/1-|
E|--------------------------------------------------------|

e|-------------------------------------------------------|
B|-------------------------------------------------------|
G|-11111111-99-8888-999-88-6666-111111111111111111111111-|
D|--x-x-x-x-xx-xxxx-xxx-xx-xxxx--x-x-x-x-x-x-x-x-x-x-x-x-|
A|--9-9-9-9-77-6666-777-66-4444--9-9-9-9-9-9-9-9-9-9-9-9-|
E|-------------------------------------------------------|

e|--------------------------------------------------------|
B|--------------------------------------------------------|
G|-11111111-99-8888-999-88-6666-888-66-4444-6666-3333/4/3-|
D|--x-x-x-x-xx-xxxx-xxx-xx-xxxx-xxx-xx-xxxx-xxxx-xxxx/x/x-|
A|--9-9-9-9-77-6666-777-66-4444-666-44-2222-4444-1111/2/1-|
E|--------------------------------------------------------|

e|-----------------------------------------------------|
B|-----------------------------------------------------|
G|-11111111-99-8888-999-88-6666-999999999/111111111111-|
D|--x-x-x-x-xx-xxxx-xxx-xx-xxxx-xxxxxxxxx/-x-x-x-x-x-x-|
A|--9-9-9-9-77-6666-777-66-4444-777777777/-9-9-9-9-9-9-|
E|-----------------------------------------------------|

Chorus
e|------------------------------------|
B|------------------------------------|
G|---------9999999---------1111111111-|
D|-6666666-9999999-9999999--x-x-x-x-x-|
A|-6666666-7777777-9999999--9-9-9-9-9-| x3
E|-4444444---------7777777------------|

e|---------------------------------------------------------|
B|---------------------------------------------------------|
G|---------9999999---------8888888-666666666666-9999999999-|
D|-6666666-9999999-9999999-8888888-666666666666-9999999999-|
A|-6666666-7777777-9999999-6666666-444444444444-7777777777-|
E|-4444444---------7777777---------------------------------|

Breakdown
e|-----------------------------------------------------------| }
B|-----------------------------------------------------------| }
G|-99999-88/11111111---99999-1111/8888-----------------------| }
D|-99999-xx/-x-x-x-x---99999--x-x/xxxx-99999-6666-99999-6666-| }
A|-77777-66/-9-9-9-9---77777--9-9/6666-99999-6666-99999-6666-| }
E|-------------------------------------77777-4444-77777-4444-| }
} x4
e|-------------------------------------------------------------| }
B|-------------------------------------------------------------| }
G|-99999-88/11111111---99999-1111/8888-------------------------| }
D|-99999-xx/-x-x-x-x---99999--x-x/xxxx-99999-6666-99999-111111-| }
A|-77777-66/-9-9-9-9---77777--9-9/6666-99999-6666-99999-111111-| }
E|-------------------------------------77777-4444-77777--9-9-9-| }

Chorus
e|------------------------------------| }
B|------------------------------------| }
G|---------9999999---------1111111111-| }
D|-6666666-9999999-9999999--x-x-x-x-x-| }
A|-6666666-7777777-9999999--9-9-9-9-9-| x3 }
E|-4444444---------7777777------------| }
} x2
e|---------------------------------------------------------| }
B|---------------------------------------------------------| }
G|---------9999999---------8888888-666666666666-9999999999-| }
D|-6666666-9999999-9999999-8888888-666666666666-9999999999-| }
A|-6666666-7777777-9999999-6666666-444444444444-7777777777-| }
E|-4444444---------7777777---------------------------------| }

End On
|---|
|---|
|-4-|
|-4-|
|-2-|
|---|

===============================================================================