Stop Censorship
 
 

 
 1-9 a b c d e f g h i j k l m n o p q r s t u v w x y z
   Constellation - Please Let This Be The End (Lead) Tab    

-------------------------------------------------------------------------------
Please Let This Be The End (Lead) - Constellation
-------------------------------------------------------------------------------
key of A major
By:m1j0y3korn@aol.com

palm mute = ......
let note ring = ~
hammer on = h


Intro
|-------------------------|
|-------2----3----2-------|
|-----2---2----2----2---2-|
|---2-------2----2----2---|
|-0-----------------------|
|-------------------------|

|-------------------------|
|-------2----5----3-------|
|-----2---2----2----2---2-|
|---2-------2----2----2---|
|-0-----------------------|
|-------------------------|

|-----------------------------------|
|-------2----3----5----3----3----2~-|
|-----2---2----2----2----2----2-----|
|---2-------2----2----2----2----2---|
|-0---------------------------------|
|-----------------------------------|

Verse
e|---------------------------------------------------------| }
B|----------------2----------------------------------------| }
G|-2----2-------------2-------2h4------------------4-4-4-4-| }
D|-2---------2------------2----------2----2----2---4-4-4-4-| }
A|-0-00---00---00---0---0---0-----00---00---00---0-2-2-2-2-| }
E|---------------------------------------------------------| }
pm .. .. .. . . . .. .. .. . . . }
} x2
e|--------------------------------------------------------| }
B|----------------2-----------2~--------------------------| }
G|-2----2-------------2-------------2-------------4-4-4-4-| }
D|-2---------2------------2--------------2----2---4-4-4-4-| }
A|-0-00---00---00---0---0---0----00---00---00---0-2-2-2-2-| }
E|--------------------------------------------------------| }
pm .. .. .. . . . .. .. .. . . }

Pre-Chorus
e|---------------------------------------------------|
B|---------------------------------------------------|
G|-7777777777-9999999999-77777777777-999999-7777-666-|
D|-7777777777-9999999999-77777777777-999999-7777-666-|
A|-5555555555-7777777777-55555555555-777777-5555-444-|
E|---------------------------------------------------|

Chorus
e|------------------------------------------|
B|------------------------------------------|
G|-22-2-222-444444444------------7777777777-|
D|-22-2-222-444444444-4444444444-7777777777-|
A|-00-0-000-222222222-4444444444-5555555555-| x4
E|--------------------2222222222------------|
pm .. ...

Verse
e|---------------------------------------------------------| }
B|----------------2----------------------------------------| }
G|-2----2-------------2-------2h4------------------4-4-4-4-| }
D|-2---------2------------2----------2----2----2---4-4-4-4-| }
A|-0-00---00---00---0---0---0-----00---00---00---0-2-2-2-2-| }
E|---------------------------------------------------------| }
pm .. .. .. . . . .. .. .. . . . }
} x2
e|--------------------------------------------------------| }
B|----------------2-----------2~--------------------------| }
G|-2----2-------------2-------------4-------------4-4-4-4-| }
D|-2---------2------------2--------------2----2---4-4-4-4-| }
A|-0-00---00---00---0---0---0----00---00---00---0-2-2-2-2-| }
E|--------------------------------------------------------| }
pm .. .. .. . . . .. .. .. . . }

Pre-Chorus
e|---------------------------------------------------|
B|---------------------------------------------------|
G|-7777777777-9999999999-77777777777-999999-7777-666-|
D|-7777777777-9999999999-77777777777-999999-7777-666-|
A|-5555555555-7777777777-55555555555-777777-5555-444-|
E|---------------------------------------------------|

Chorus
e|------------------------------------------------|
B|------------------------------------------------|
G|-22-2-222-444444444------------7777777777----2~-|
D|-22-2-222-444444444-4444444444-7777777777----2~-|
A|-00-0-000-222222222-4444444444-5555555555----0~-| x4
E|--------------------2222222222------------------|
pm .. ...

Breakdown (clean)
e|---------------------------|
B|------------------------2~-|
G|---------------------------|
D|-7~----7-9---9-4---4-0-----|
A|---------------------------| x2
E|---------------------------|

e|-------------------------------------------------------| }
B|-------------------------------------------------------| }
G|----9----9----9----9----9------9----9----9----9----9---| }
D|-77---77---77---77---77---7-99---99---99---99---99---9-| }
A|-------------------------------------------------------| }
E|-------------------------------------------------------| }
} x2
e|--------------------------------------------------------| }
B|--------------------------------------2-------------2---| }
G|----6----6----6----6----6------2----2---2----2----2---2-| }
D|-44---44---44---44---44---4-00---00-------00---00-------| }
A|--------------------------------------------------------| }
E|--------------------------------------------------------| }

e|---------------------------|
B|------------------------2~-|
G|---------------------------|
D|-7~----7-9---9-4---4-0-----|
A|---------------------------|
E|---------------------------|

e|--------------------------------------------------------|
B|--------------------------------------------------------|
G|--------------------------------------------------------|
D|-777777777777-9999999999999-444444444444-00000000000000-|
A|--------------------------------------------------------|
E|--------------------------------------------------------|

(distorted)
e|------------------------------------------------------|
B|------------------------------------------------------|
G|-22222222222-444444444444---------------7777777777777-|
D|-22222222222-444444444444-4444444444444-7777777777777-|
A|-00000000000-222222222222-4444444444444-5555555555555-|
E|--------------------------2222222222222---------------|

e|-------------------------------------------------------| }
B|-------------------------------------------------------| }
G|----9----9----9----9----9------9----9----9----9----9---| }
D|-77---77---77---77---77---7-99---99---99---99---99---9-| }
A|-------------------------------------------------------| }
E|-------------------------------------------------------| }
} x2
e|--------------------------------------------------------| }
B|--------------------------------------2-----------2-----| }
G|----6----6----7----6----6------2----2---2----2------2---| }
D|-44---44---44---44---44---4-00---00-------00---00-----0-| }
A|--------------------------------------------------------| }
E|--------------------------------------------------------| }

Intro
|-------------------------|
|-------2----3----2-------|
|-----2---2----2----2---2-|
|---2-------2----2----2---|
|-0-----------------------|
|-------------------------|

|-------------------------|
|-------2----5----3-------|
|-----2---2----2----2---2-|
|---2-------2----2----2---|
|-0-----------------------|
|-------------------------|

|-----------------------------------|
|-------2----3----5----3----3----2~-|
|-----2---2----2----2----2----2-----|
|---2-------2----2----2----2----2---|
|-0---------------------------------|
|-----------------------------------|

End On
e|---|
B|---|
G|-2-|
D|-2-|
A|-0-|
E|---|

===============================================================================