Stop Censorship
 
 

 
 1-9 a b c d e f g h i j k l m n o p q r s t u v w x y z
   Constellation - Tales From The Crypt Theme Tab    

-------------------------------------------------------------------------------
Tales From The Crypt Theme - Constellation
-------------------------------------------------------------------------------

By:m1j0y3korn@aol.com


e|------------------------------------------------------------------------------|
B|----------13-12---------------------------------------------------------------|
G|----12-15-------12----------------12---------10-12-14-16-17-16----------------|
D|-14----------------14----------14----10-9-12-------------------17-16-14-13-14-|
A|----------------------15-14-15------------------------------------------------|
E|------------------------------------------------------------------------------|