Stop Censorship
 
 

 
 1-9 a b c d e f g h i j k l m n o p q r s t u v w x y z
   Copper - By Now Tab    

Copper – By Now


Intro/Verse
-----------------------------------
-----------------------------------
-----------------------------------
-4-4-4-6-6-6-7-7-7-2-2-2-2-2-2-2-2-
-4-4-4-6-6-6-7-7-7-2-2-2-2-2-2-2-2-
-2-2-2-4-4-4-5-5-5-0-0-0-0-0-0-0-0-



Pre Chorus part one
-----------------------------------------------------------------
-----------------------------------------------------------------
-6-6-6-6-6-6-6-6-6-6-6-6-6-6-6-6-4-4-4-4-4-4-4-4-4-4-4-4-4-4-4-4-
-6-6-6-6-6-6-6-6-6-6-6-6-6-6-6-6-4-4-4-4-4-4-4-4-4-4-4-4-4-4-4-4-
-4-4-4-4-4-4-4-4-4-4-4-4-4-4-4-4-2-2-2-2-2-2-2-2-2-2-2-2-2-2-2-2-
-----------------------------------------------------------------
Pre Chorus part two
-----------------------------------------------------------------
-----------------------------------------------------------------
-----------------------------------------------------------------
-7-7-7-7-7-7-7-7-7-7-7-7-7-7-7-7-2-2-2-2-2-2-2-2-2-2-2-2-2-2-2-2-
-7-7-7-7-7-7-7-7-7-7-7-7-7-7-7-7-2-2-2-2-2-2-2-2-2-2-2-2-2-2-2-2-
-5-5-5-5-5-5-5-5-5-5-5-5-5-5-5-5-0-0-0-0-0-0-0-0-0-0-0-0-0-0-0-0-
. . . . . . . . . . . . . . . . . . . . . . . . . . . . . . . . pm
-----------------------------------------------------------
-----------------------------------------------------------
-----------------------------------------------------------
-7-7-7-7-7-7-7-7-7-7-7-7-7-7-7-7---7-9-9-9--7-9-9-9--9-9-9-
-7-7-7-7-7-7-7-7-7-7-7-7-7-7-7-7---7-9-9-9--7-9-9-9--9-9-9-
-5-5-5-5-5-5-5-5-5-5-5-5-5-5-5-5---5-7-7-7--5-7-7-7--7-7-7-
. . . . . . . . . . . . . . . . pm



Chorus
---------------------------------------------
---------------------------------------------
---------------------------------------------
-4-4-4-6-6-6-7-7-7-7-7-7-7-7-7-7-7-7-7-7-7-7-
-4-4-4-6-6-6-7-7-7-7-7-7-7-7-7-7-7-7-7-7-7-7-
-2-2-2-4-4-4-5-5-5-5-5-5-5-5-5-5-5-5-5-5-5-5-

*on the third time play the 6 power chord only twice.
6
4
Outro
-----------------------------------------------------------
-----------------------------------------------------------
-----------------------------------------------------------
-7-7-7-4-4-4-6-6-6-2-2-2-2-2-2-2-2---------7-7-4-4-6-6-2-2-
-7-7-7-4-4-4-6-6-6-2-2-2-2-2-2-2-2-(3x)----7-7-4-4-6-6-2-2-
-5-5-5-2-2-2-4-4-4-0-0-0-0-0-0-0-0---------5-5-2-2-4-4-0-0-



Order:
Intro/Verse- 14x
Pre Chorus part one- 2x
Pre Chorus part two- 1x
Chorus- 4x
Intro/Verse- 8x
Pre Chorus part one- 2x
Pre Chorus part two- 1x
Chorus- 4x
Outro- 1x