Stop Censorship
 
 

 
 1-9 a b c d e f g h i j k l m n o p q r s t u v w x y z
   Creamer - Social Grenade Tab    

Band - Creamer (Kickin Out The Jams)
Track - Social Grenade
Album - Fresh Goat?

Creamer are:
Varnz - Vox
Jim - Drums
Fisher - Bass Guitar
Bob - Lead Guitar

CREAMER ARE AN EXICITING FUSION OF ROCK, METAL + FUNK.
THEIR DEBUT ALBUM, Fresh Goat?, IS IN THE FINAL STAGES
OF RECORDING AND WILL HIT THE STORES IN EARLY MARCH, 2003.
STAY TUNED!!!

Hello. I am Jim. I play the drums y`all. I agree with bob and varnz about
how we rule. To get our album (when its out) call us on 01789293351 and ask
for BOB, JIM, VARNZ, FISHER OR WARDY (or rollz).

Yo Yo, check it y`all, Bobby here. We gotta coupla new tunez for
y`all ta catch so keep ur ears to the wire coz tha revolution that is
Creamer is headed to a town near u soon and we`re gonna Kick Out The Jams
like u`ve never heard b4. This is my tab homies so dontcha go nickin any
riffs now y`all hear me. Keep on bustin out the tunez y`all. Bobby.

hey yall creamer fans you really wanna buy this album to get the tru feel 4 da tunez
its some pretty sick stuff yall. just come to see us and catch up with what music`s bin lacking since the start of history. keep it big. varnz xxx

fisher hasnt spoken yet.....

Droppped-D Tuning
W/wah settings --> c = closed
/ = open

INTRO
E|--------------------------------------------|
B|----13--------------8----10-------------8---|
G|-------12---------7---------9---------7-----|
D|----------14----9-------------11----9-------|
A|-12-----------7--------9----------7---------|
D|--------------------------------------------|

VERSE (clean)
E|----------------------|
B|-7h8----7h8-8-x-10----|
G|-7------7---7-x-9-----|
D|-7h9----7h9-9-x-11----|
A|-7------7---7-x-9-----|
D|----------------------|

BRIDGE (clean)
E|-------------------------------------------------------|
B|-7h8-8-8-x-7h8-8-8-x-7h8-x-x-7h8-8-8-x-7h8-8-8-x-10-10-|
G|-7---7-7-x-7---7-7-x-7---x-x-7---7-7-x-7---7-7-x-9--9--|
D|-7h9-9-9-x-7h9-9-9-x-7h9-x-x-7h9-9-9-x-7h9-9-9-x-11-11-|
A|-7---7-7-x-7---7-7-x-7---x-x-7---7-7-x-7---7-7-x-9--9--|
D|-------------------------------------------------------|

CHORUS (Treble Pickup + distorted w/wah)
E|--------------------------------------------|
B|-7--x-6--x-5--x-4--x-----3---3---5^---------|
G|-9^-x-8^-x-7^-x-6^-x-3h5---5---5----5-3-5-3-|
D|--------------------------------------------|
A|--------------------------------------------|
D|--------------------------------------------|
/ c / c / c / c / c / c /

INTERLUDE
E|-------------------------------------------------|
B|-------------------------------------------------|
G|-------------------------------------------------|
D|---------------------------------------3-------3-|
A|-3h5-5-5-5-5-5-5-6-6-6-6-5-3-0-x-3h5-x---x-3-5---|
D|-0---0-0-0-0-0-5-6-6-6-6-5-3-0-------------------|


ORDER:-

INTRO x 2
VERSE x 6
BRIDGE x 2
CHORUS x 4
VERSE x 4
BRIDGE x 2
CHORUS x 4
INTERLUDE x 8
INTERLUDE (Palm Muted) x 4
INTERLUDE x 4
CHORUS x 8
MASSIVE ENDING (Based around Chorus) x 1
INTERLUDE x 16

Creamer and Social Grenade are copyright of Creamer (kickin out tha jams) 2003.
All rights reserved