Stop Censorship
 
 

 
 1-9 a b c d e f g h i j k l m n o p q r s t u v w x y z
   Dave Van Ronk - Gamblers Blues Tab    

Email-bif_naked_kid@hotmail.com
site-kidkorn.com
Dave Van Ronk - Gambler`s Blues

Notes:
I love this song. Go on napster and d/l it. Also finger pick this!

Main riff
e|---------|
b|-0-0--0-0|
g|-0-0--0-0|
d|---------|
a|2----3---|
E|---------|

Fill 1
e|--------|
b|-0-0-0-0|
g|-0-0-0-0|
d|2-------|
a|----3---|
E|--------|

Fill 2
e|-------------|
b|-0-0--0-0-0--|
g|-0-0--0-0-0--|
d|-------------|
a|2----3---/5--|
E|-------------|
slide