Stop Censorship
 
 

 
 1-9 a b c d e f g h i j k l m n o p q r s t u v w x y z
   Derek And The Dominoes - Layla Tab    

Dm A# C D Dm A# C D

1)---------------1-1------------------------------------1-1---------------------
2)---------------3-3-----3------5------7----------------3-3-----3------5------7-
3)---------------2-2-----3------5------7----------------2-2-----3------5------7-
4)-----0h3p0-----0-0-----3------5------7------0h3p0-----0-0-----3------5------7-
5)--0h3------h3-------3--1--0---3--0---5---0h3------h3-------3--1--0---3--0---5-
6)----------------------------3------3-------------------------------3------3---

1)-------10h13p10----10--15-13-12----10--------10h13p10------17-15-12----10-
2)-10h13----------h13--------------13-----10h13----------h13----------13----
3)--------------------------------------------------------------------------
4)--------------------------------------------------------------------------
5)--------------------------------------------------------------------------
6)--------------------------------------------------------------------------

1)-------10h13p10----10--15-13-12----10--------10h13p10------17-15-12----10-
2)-10h13----------h13--------------13-----10h13----------h13----------13----
3)--------------------------------------------------------------------------
4)--------------------------------------------------------------------------
5)--------------------------------------------------------------------------
6)--------------------------------------------------------------------------


Verse:
C#m G# C#m B Cm D# F# B E A F# B E A

1)----------------------------------------------------------------0-00--------------------0-00-------
2)-5-5-55-55-5---------------5-55--4--6--8-8-88-88-8--------4-44--0-00--2-22--------4-44--0-00--2-22-
3)-6-6-66-66-6--5-5-55-55-5--6-66--4--6--8-8-88-88-8--3-33--4-44--1-11--2-22--3-33--4-44--1-11--2-22-
4)-6-6-66-66-6--6-6-66-66-6--6-66--4--6--8-8-88-88-8--4-44--4-44--2-22--2-22--4-44--4-44--2-22--2-22-
5)-4-4-44-44-4--6-6-66-66-6--4-44--2--4--6-6-66-66-6--4-44--2-22--2-22--0-00--4-44--2-22--2-22--0-00-
6)--------------4-4-44-44-4---------------------------2-22--------0-00--------2-22--------0-00-------



Chorus(x4):

Dm A# C D

1)---------------1-1---------------------
2)---------------3-3-----3------5------7-
3)---------------2-2-----3------5------7-
4)-----0h3p0-----0-0-----3------5------7-
5)--0h3------h3-------3--1--0---3--0---5-
6)----------------------------3------3---

What`ll you do when you get lonely
And nobody`s waiting by your side
You`ve been running, hiding much too long
You know it`s just your foolish pride

Layla, you got me on my knees
Layla, I`m begging darling, please
Layla, darling, won`t you ease my worried mind

I tried to give you consolation
When your old man had let you down
Like a fool, I fell in love with you
You turned my whole world upside down

Layla, you got me on my knees
Layla, I`m begging darling, please
Layla, darling, won`t you ease my worried mind

Let`s make the best of the situation
Before I finally go insane
Please don`t say we`ll never find a way
And tell me all my love`s in vain

Layla, you got me on my knees
Layla, I`m begging darling, please
Layla, darling, won`t you ease my worried mind