Stop Censorship
 
 

 
 1-9 a b c d e f g h i j k l m n o p q r s t u v w x y z
   Downshift - Cradle Disturbed Tab    

Downshift-
Cradle Disturbed-Cradle Disturbed
Tabbed By: HyperIbanez

Dropped D Tuned DADGBE

Intro (Heavy Distortion)
{palm mute} very fast strumming
e-------------
B------------
G------------
D----2-------
A----2-------
D----2x32--

Verse 1 and 2 (Palm mute)
e--------------------------------------------------------------------------
B--------------------------------------------------------------------------
G---------------------------------------------------------------------------
D----2------4-------5------7-------2---------12-------7--------2-----
A----2------4-------5------7-------2---------12-------7--------2-------
D----2x16---4x16----5-x8---7-x8----2-x16-----12-x16---7-x16----2--x32-

Chourus

e-------------------------------------
B------------------------------------
G-------------------------------------
D----0------7-------2--------9-------
A----0------7-------2--------9--------
D----0-x5---7x5-----2-x5-----9-x5- Repeat once, and go back to verse.

Bridge

e-------------------------------------------------
B--------------------------------------------------
G--------------------------------------------------
D--------------12--------------------2------------
A--------12--------------7-------2---------5--
D---12----------------7-------2--------5------Repeat-2 more times, then.......

e-------------------------------------------------
B--------------------------------------------------
G--------------------------------------------------
D--------------12--------------------2----2-
A--------12--------------7-------2-----2-------
D---12----------------7-------2------------ Go to chourus

Ending

e---------------------------------------------------------------------------------
B----------------------------------------------------------------------------------
G-----------------------------------------------------------------------------------
D----0------7-------2--------9---------0------7-------2--------9------7/9-
A----0------7-------2--------9---------0------7-------2--------9------7/9--
D----0-x5---7x5-----2-x5-----9-x5------0-x5---7x5-----2-x5-----9-x5---7/9-

Verse1
Time has slipped away from me reminding me of the things i used to be,
when i was born i was blessed with evil, turning corners and meeting people.
I found the braveness of making lovers but what they found was undiscovered
and the process of making myself grow up, and what i want just plain blew up.

Chourus
A mind molested, a cry unheard, a pain everlasting, a cradle disturbed.x2

Verse 2
Taking what i want to have, never having time to laugh.
in my broken childhood, living in the dirty mud.
eating scraps from the trash, being dirty talking rash
i dont care what others think, so call me crazy, call the shrink!

Bridge
Where will i go to help me
where will i go to cry
expect the worst of feelings
until its time to die

Thats it. Good luck finding the song to listen to for timing! Enjoy!