Stop Censorship
 
 

 
 1-9 a b c d e f g h i j k l m n o p q r s t u v w x y z
   Drowning Pool - Bodies Tab    

Drowning Pool-----Bodies
Tuning: C,G,C,F,A,D

Comments or corrections, just email me at
Justin.Peeples@juno.com. JUSTIN (Peeps)

Intro/Chorus
F—7-7-7-------------------------------
C---------6-6-6-6-3---0-0-0---6—-6-6-3
G—5-5-5---6-6-6-6-3---0-0-0---6—-6-6-3
C---------6-6-6-6-3---0-0-0---6—-6-6-3

The next little fill is the two little high note chords that
appear all throughout the song.
D--------10-10-10-10---------15-15-15-15
A----------------------------15-15-15-15
F--------7—-7—-7—-7-------15-15-15-15-15
C------0--------------------------------
G---------------------------------------
C---0------------------0----------------

The riff I just tabbed out is then played w/ a full open C
chord at the first, instead of just the single C note...the
full C chord is palm-muted in the verse except for the very
last time it is played in the verse. These are also the chords
used in the solo...you can listen to the song to get the timing
down for each part of the song these chords are in.

Verse
C—0—-0-3-0---0-2-3
G—0—-0-3-0---0-2-3 the first through each verse has one
C—0—-0-3-0---0-2-3 extra note played before the first 3rd fret
PM…………………………………… bar chord. you’ll be able to tell when you
listen to the song.
Bridge
C—6-x-6-x---0—-0-0-0----6-x-6-x---3—-3-3-1
G—6-x-6-x---0—-0-0-0----6-x-6-x---3—-3-3-1
C—6-x-6-x---0—-0-0-0----6-x-6-x---3—-3-3-1

Some of the notes in the bridge are palm-muted at times;
you’ll have to listen to the song to see which ones are palm-muted.

And finally we have the very last 4 measures of the song...
F---7-7-7-------------7-7-7----------
C-----------6-6-6-6-----------6-6-6-3
G---5-5-5---6-6-6-6---5-5-5---6-6-6-3 play this riff twice
C-----------6-6-6-6-----------6-6-6-3