Stop Censorship
 
 

 
 1-9 a b c d e f g h i j k l m n o p q r s t u v w x y z
   Drowning Pool - Follow Tab    

-----------------------------------------------------------
-----------------------------------------------------------
-----------------------------------------------------------
--------------------------------------------x-x-x-x-x-x-x--
--------------------------------------------x-x-x-x-x-x-x--
-0h2-2-3-2-0-2--2--2-3-2-0-2--0h2-2-3-2-0-2-x-x-x-x-x-x-x--

------------------------------------------------------------------------------
------------------------------------------------------------------------------
------------------------------------------------------------------------------
------------------------------------------------------------------------------
------------------------------------------------------------------------------
-0h2-2-3-2-0-2--2--2-3-2-0-2--0h2-2-3-2-0-2--5-5-5-5-3-3-3-3------------------

------------------------------------------------------------------------------
------------------------------------------------------------------------------
------------------------------------------------------------------------------
------------------------------------------------------------------------------
------------------------------------------------------------------------------
-0h2-2-3-2-0-2--2--2-3-2-0-2--0h2-2-3-2-0-2--2--2-3-2-0-2---------------------

------------------------------------------------------------------------------
------------------------------------------------------------------------------
------------------------------------------------------------------------------
------------------------------------------------------------------------------
------------------------------------------------------------------------------
-0h2-2-3-2-0-2--2--2-3-2-0-2--0h2-2-3-2-0-2--5-5-5-5-3-3-3-3------------------

------------------------------------------------------------------------------
------------------------------------------------------------------------------
------------------------------------------------------------------------------
------------------------------------------------------------------------------
-4--4-4-5-5-4--4--4-5-5-4--4-4--4-5-5-2-----2-4-4-5---------------------------
-2--2-2-3-3-2--2--2-3-3-2--2-2--2-3-3-0--0--0-2-2-3---------------------------

------------------------------------------------------------------------------
------------------------------------------------------------------------------
------------------------------------------------------------------------------
-11--12-12-11--11--11-12-12-11--11-11--11-12-12-9--9-9--9-11-12---------------
------------------------------------------------------------------------------
------------------------------------------------------------------------------

------------------------------------------------------------------------------
------------------------------------------------------------------------------
------------------------------------------------------------------------------
------------------------------------------------------------------------------
-4--4/5-4-4--4/5-5-5--5-5-5-5--2-2-2-2----------------------------------------
-2--2/3-2-2--2/3-3-3--3-3-3-3--0-0-0-0--0-2-3---------------------------------

-----------------------------------------------------------------------------
-----------------------------------------------------------------------------
-----------------------------------------------------------------------------
-6-6--7-7-6--6-6--7-6--6-6--7-7--6--9-9-9--9/11-11-11------------------------
-4-4--5-5-4--4-4--5-4--4-4--5-5--4--7-7-7--7/10-10-10------------------------
-4-4--5-5-4--4-4--5-4--4-4--5-5--4--7-7-7--7/10-10-10------------------------

-12h14--14-15-14-12-14--14--14-15-14-12-14-14/18-18-18-18--18-18-18-18-15-15-
-----------------------------------------------------------------------------
-----------------------------------------------------------------------------
-----------------------------------------------------------------------------
-----------------------------------------------------------------------------
-----------------------------------------------------------------------------

-15-15-15-15-14-14--12h14--14-15-14-12-14--14--14-15-14-12-14--15-15-15-15--
----------------------------------------------------------------------------
----------------------------------------------------------------------------
----------------------------------------------------------------------------
----------------------------------------------------------------------------
----------------------------------------------------------------------------

-15-15-15-15--12-12-12-12--12-15-15-15--12h14--14-15-14-12-14--14--14-15-14--
-----------------------------------------------------------------------------
-----------------------------------------------------------------------------
-----------------------------------------------------------------------------
-----------------------------------------------------------------------------
-----------------------------------------------------------------------------

-12-14--14/18-18-18--18-18-18-18--15-15-15-15--15-15-14-14--12h14-14-15-14--
----------------------------------------------------------------------------
----------------------------------------------------------------------------
----------------------------------------------------------------------------
----------------------------------------------------------------------------
----------------------------------------------------------------------------

-12-14--14--14-15-14-12-14--15-15-15-15--15-15-15-15--12-12-12-12--12------
----------------------------------------------------------------------------
----------------------------------------------------------------------------
----------------------------------------------------------------------------
----------------------------------------------------------------------------
----------------------------------------------------------------------------


-----------------------------------------------------------------------------
---------------------12b----12-12-12-12----------12--11h12-11--11h12p118----
-11--11h12-11---11----------------------------------------------------------
-----------------------------------------------------------------------------
-----------------------------------------------------------------------------
-----------------------------------------------------------------------------

----------------------------------------------------------------11-12/1412--
-7h8h75---5h7-7-7-7-5-5-5--5h8-8-8--8-7-7-7--11h12h14p12p11-12--------------
-----------------------------------------------------------------------------
-----------------------------------------------------------------------------
-----------------------------------------------------------------------------
-----------------------------------------------------------------------------

-11-12p11----------------11h12p11-----------------11-12--11h12p11------------
----------13-12h13-12h13----------13p12h13--11h12----------------------------
-----------------------------------------------------------------------------
-----------------------------------------------------------------------------
-----------------------------------------------------------------------------
-----------------------------------------------------------------------------

----11----11-11-------------------------------------------------------------
-12----12-------11-12-11----------------------------------------------------
-------------------------12-11-12--11h12-11--11-11h12p11h12--11h12p11h12----
----------------------------------------------------------------------------
----------------------------------------------------------------------------
----------------------------------------------------------------------------

------------------------------------------------------------------------------
------------------------------------------------------------------------------
----------------------------------------------------------2-------------------
----------------------------------------------------------2-------------------
-----------------------------------------------5-4----5-4-0-------------------
-0h2--2-3-2-0-2--2--2-3-2-0-2--0h2--2-3-2-0-2--3-2-0--3-2---------------------

----------------------------------------------------------------------------
----------------------------------------------------------------------------
----------------------------------------------------------------------------
-11--11-12--11---11----11-12-12-12--12-12-12-12--9-9-9-9--9-11-12----------
----------------------------------------------------------------------------
----------------------------------------------------------------------------

you will have to work out order yourself