Stop Censorship
 
 

 
 1-9 a b c d e f g h i j k l m n o p q r s t u v w x y z
   Drowning Pool - I Am Tab    

Artist: Drowning Pool
Song: I Am
Album: Sinner
Tabber: Brandon Knoepfler (ShaynasLilBaby@aol.com)
Tunning: 3 Flats drop B# so it looks like
B# , Gb , B# , E# , Ab , Db
Key- Palm Mute(PM)= .
Harmonics= (#)
Pull Off= p

I Dont have the amount of times you play each part, but I did
include the time at which you start playing each peice. I cant
figure out the solo right now, but if I do I will add it in.
I Know this isnt 100% correct, but it sounds really good!

Intro 0:02
Db|-----------------------------------------
Ab|-----------------------------------------
E#|-----------------------------------------
B#|--0-0-0-(7)-0-0-0-(7)-0-0-0-(7)-6p4-5p3--
Gb|--0-0-0-----0-0-0-----0-0-0-----6p4-5p3--
B#|--0-0-0-----0-0-0-----0-0-0-----6p4-5p3--
PM . . .

Intro (Cont.)
-----------------------------------------|
-----------------------------------------|
-----------------------------------------|
--0-0-0-----0-0-0-----0-0-0-----6p4-5p3--|
--0-0-0-(9)-0-0-0-(9)-0-0-0-(9)-6p4-5p3--|
--0-0-0-----0-0-0-----0-0-0-----6p4-5p3--|
PM . . .

Intro #2 0:10
Db|--------------------------------|
Ab|--------------------------------|
E#|--------------------------------|
B#|--0-0-3--0-0-3--0-0-3--6p4-5p3--|
Gb|--0-0-3--0-0-3--0-0-3--6p4-5p3--|
B#|--0-0-3--0-0-3--0-0-3--6p4-5p3--|

Verse 0:29 + 1:23
Db|---------------------------|
Ab|---------------------------|
E#|---------------------------|
B#|--0----------(7)>Let-Ring--|
Gb|--0>Let-Ring---------------|
B#|--0>Let-Ring---------------|

Pre Chorus 0:47 + 1:40
Db|--------------------------------------------------
Ab|--------------------------------------------------
E#|--------------------------------------------------
B#|----------2p0----------2p0----------2p0--5-5-3-3--
Gb|--x-x-x-x-2p0--x-x-x-x-2p0--x-x-x-x-2p0--5-5-3-3--
B#|--x-x-x-x-2p0--x-x-x-x-2p0--x-x-x-x-2p0--5-5-3-3--

Pre Chorus (Cont.)
--------------------------------------------------|
--------------------------------------------------|
--------------------------------------------------|
----------2p0----------2p0----------2p0--5-5-5-5--|
--x-x-x-x-2p0--x-x-x-x-2p0--x-x-x-x-2p0--5-5-5-5--|
--x-x-x-x-2p0--x-x-x-x-2p0--x-x-x-x-2p0--5-5-5-5--|

Chorus 1:05 + 1:59
Db|--------------------------------------|
Ab|--------------------------------------|
E#|--------------------------------------|
B#|--0-0-0-0--0-0-0-0--0-0-0-0--6p4-5p3--|
Gb|--0-0-0-0--0-0-0-0--0-0-0-0--6p4-5p3--|
B#|--0-0-0-0--0-0-0-0--0-0-0-0--6p4-5p3--|
PM . . . . . .

Chorus #2 1:14 + 2:07
Db|--------------------------------------|
Ab|--------------------------------------|
E#|--------------------------------------|
B#|--0-0-3-3--0-0-3-3--0-0-3-3--6p4-5p3--|
Gb|--0-0-3-3--0-0-3-3--0-0-3-3--6p4-5p3--|
B#|--0-0-3-3--0-0-3-3--0-0-3-3--6p4-5p3--|

Bridge 2:17 + 2:53
Db|--------------------------------------|
Ab|--------------------------------------|
E#|--------------------------------------|
B#|--0-0-8-8--0-0-8-8--0-0-8-8--8-8-8-7--|
Gb|--0-0-8-8--0-0-8-8--0-0-8-8--8-8-8-7--|
B#|--0-0-8-8--0-0-8-8--0-0-8-8--8-8-8-7--|

Solo 2:34 till 2:52

Outro Chorus 3:10
Db|-----------------------------------|
Ab|-----------------------------------|
E#|-----------------------------------|
B#|--0-0--0--0-0--0--0-0--0--6p4-5p3--|
Gb|--0-0--0--0-0--0--0-0--0--6p4-5p3--|
B#|--0-0--0--0-0--0--0-0--0--6p4-5p3--|

Outro 3:28
Db|-----------------------------------------
Ab|-----------------------------------------
E#|-----------------------------------------
B#|--0-0-0-(7)-0-0-0-(7)-0-0-0-(7)-6p4-5p3--
Gb|--0-0-0-----0-0-0-----0-0-0-----6p4-5p3--
B#|--0-0-0-----0-0-0-----0-0-0-----6p4-5p3--
PM . . .

Outro (Cont.)
-----------------------------------------|
-----------------------------------------|
-----------------------------------------|
--0-0-0-----0-0-0-----0-0-0-----6p4-5p3--|
--0-0-0-(9)-0-0-0-(9)-0-0-0-(9)-6p4-5p3--|
--0-0-0-----0-0-0-----0-0-0-----6p4-5p3--|
PM . . .