Stop Censorship
 
 

 
 1-9 a b c d e f g h i j k l m n o p q r s t u v w x y z
   Drowning Pool - Sermon Tab    

#----------------------------------PLEASE NOTE--------------------------------#
#This file is the author`s own work and represents their interpretation of the#
#song. You may only use this file for private study, scholarship, or research.#
#-----------------------------------------------------------------------------#
#-- File created with Instab - http:/www.pconline.com/~smcarey/instab.html --#
#-----------------------------------------------------------------------------#

Author/Artist: Drowning pool
Title: Sermon
Album: Sinner
Transcribed by: Gei
Email: l_c_f_r@hotmail.com

Tuning: C g c f a d

Intro:

Guitar 1:
|------------------------------------------------------|
|------------------------------------------------------|
|------------------------------------------------------|
|-6--0-5--0-6--0-5--0-6-5-3--6--0-5--0-6--0-5--0-6-5-3-|
|-6--0-5--0-6--0-5--0-6-5-3--6--0-5--0-6--0-5--0-6-5-3-|
|-6--0-5--0-6--0-5--0-6-5-3--6--0-5--0-6--0-5--0-6-5-3-|

Guitar 2: w/tremolo picking
|------------------------------------------------------|
|------------------------------------------------------|
|----------------------------8----7----8----7----8--7--|
|----------------------------x----x----x----x----x--x--|
|----------------------------6----5----6----5----6--5--|
|------------------------------------------------------|

Guitar 1:
|------------------------------------------------------|
|------------------------------------------------------|
|------------------------------------------------------|
|-6x---5x---6x---5x---6-5-3--6--0-5--0-6--0-5--0-6-5-3-|
|-6x---5x---6x---5x---6-5-3--6--0-5--0-6--0-5--0-6-5-3-|
|-6x---5x---6x---5x---6-5-3--6--0-5--0-6--0-5--0-6-5-3-|

Guitar 2: w/tremolo picking
|------------------------------------------------------|
|------------------------------------------------------|
|----------------------------8----7----8----7----8--7--|
|----------------------------x----x----x----x----x--x--|
|----------------------------6----5----6----5----6--5--|
|------------------------------------------------------|

Guitar 1:
|------------------------------------------------------|
|------------------------------------------------------|
|-6--0-5--0-6--0-5--0-6-5-3--6--0-5--0-6--0-5--0-6-5-3-|
|-6--0-5--0-6--0-5--0-6-5-3--6--0-5--0-6--0-5--0-6-5-3-|
|-6--0-5--0-6--0-5--0-6-5-3--6--0-5--0-6--0-5--0-6-5-3-|

Guitar 2: w/tremolo picking
|------------------------------------------------------|
|------------------------------------------------------|
|-8----7----8----7----8--7---8----7----8----10---8--7--|
|-x----x----x----x----x--x---x----x----x----x----x--x--|
|-6----5----6----5----6--5---6----5----6----8----6--5--|
|------------------------------------------------------|

Guitar 1:
|------------------------------------------------------|
|------------------------------------------------------|
|------------------------------------------------------|
|-6--0-5--0-6--0-5--0-6-5-3--6x---5x---6x---5x---6-5-3-|
|-6--0-5--0-6--0-5--0-6-5-3--6x---5x---6x---5x---6-5-3-|
|-6--0-5--0-6--0-5--0-6-5-3--6x---5x---6x---5x---6-5-3-|

Guitar 2: w/tremolo picking
|------------------------------------------------------|
|------------------------------------------------------|
|-8----7----8----7----8--7---8----7----5----7----5--3--|
|-x----x----x----x----x--x---x----x----x----x----x--x--|
|-6----5----6----5----6--5---6----5----3----5----3--1--|
|------------------------------------------------------|

Interlude:
|----------------------------------------------------------------|
|-----------------------------------------------------------5----|
|---------------------5--5----------------------------5--------5-|
|-12--12--5-----------------5-----12--12--5--------------5-------|
|------------------------------5---------------------------------|
|----------------------------------------------------------------|
Nh.. .. . . . . . .. .. . . . . .

Verse 1:
|--------------------|
|--------------------|
|--------------------| x3
|--------------------|
|--------------------|
|-6--5--6--5--3--3h5-|
Pm. . . . . ...

|------------------|
|------------------|
|------------------| x1
|------------------|
|------------------|
|-6--5--6--5--3--3-|

|---------------------------------------------------|
|---------------------------------------------------|
|-/12---12------12h14p12-10---10--12--10--7-7-5-5-| x1
|---------------------------------------------------|
|---------------------------------------------------|
|---------------------------------------------------|

Pre-chorus 1:
|---------------------------------------------------|
|------------------------------------------5--------|
|----------------------------------------5---5------| x1
|--------------------------------------5-------5----|
|----------------5--3----------------5-----------5--|
|-6--5--6--5--3--------6--5--6--5--3----------------|
Pm. . . . . . . . . .
Nh . . . . . . .

|-------------------------------------------|
|-------------------------------------------|
|-------------------------------------------| x2
|-------------------------------------5--3--|
|----------------5--3-----------------------|
|-6--5--6--5--3--------6--5--6--5--3--------|
Pm. . . . . . . . . .

|-----------------------------|
|-----------------------------|
|-----------------------------| x1
|-5--5--6----br--5--5--6----|
|-5--5--6----br--5--5--6----|
|-5--5--6----br--5--5--6----|

Verse 2:
|--------------------|
|--------------------|
|--------------------| x4
|--------------------|
|--------------------|
|-6--5--6--5--3--3h5-|
Pm. . . . . ...

|------------------|
|------------------|
|------------------| x1
|------------------|
|------------------|
|-6--5--6--5--3--3-|

|---------------------------------------------------|
|---------------------------------------------------|
|-/12---12------12h14p12-10---10--12--10--7-7-5-5--| x1
|---------------------------------------------------|
|---------------------------------------------------|
|---------------------------------------------------|
Nh .

Pre-chorus 2: same pre-chorus 1

Chorus 1:
|----------------------------------|
|----------------------------------|
|----------------------------------| x4
|-0--0-1--0-0-1--0--0-10--10-10-10-|
|-0--0-1--0-0-1--0--0-10--10-10-10-|
|-0--0-1--0-0-1--0--0-10--10-10-10-|

Interlude:
|-----------------------------|
|-----------------------------|
|-----------------------------| x4
|-6--0-5--0-6--0-5--0-6-5-3-0-|
|-6--0-5--0-6--0-5--0-6-5-3-0-|
|-6--0-5--0-6--0-5--0-6-5-3-0-|
Pm. . . . . . . . . . . .

Guitar 1:
|------------------------------------------------------|
|------------------------------------------------------|
|------------------------------------------------------| x4
|-6--0-5--0-6--0-5--0-6-5-3--6--0-5--0-6--0-5--0-6-5-3-|
|-6--0-5--0-6--0-5--0-6-5-3--6--0-5--0-6--0-5--0-6-5-3-|
|-6--0-5--0-6--0-5--0-6-5-3--6--0-5--0-6--0-5--0-6-5-3-|

Guitar 2: w/tremolo picking and wah/wah - starts on 3rd of guitar 1
|------------------------------------------------------|
|------------------------------------------------------|
|-8----7----8----10---8--7---8----7----5----7----5--3--| x2
|-x----x----x----x----x--x---x----x----x----x----x--x--|
|-6----5----6----8----6--5---6----5----3----5----3--1--|
|------------------------------------------------------|

Chorus 2: same chorus 1 x6

Bridge:
|--------------------------------------|
|--------------------------------------|
|---------------------------0----------| x8
|-------1----------------1-----1-------|
|------------3--------------------3----|
|-0--0----------0--0--0--------------0-|

Chorus 3:

Guitar 1:
|-------------------------------|
|-------------------------------|
|-------------------------------| x6
|-0--0-1--0-0-1--0--0-6--10-6-5-|
|-0--0-1--0-0-1--0--0-6--10-6-5-|
|-0--0-1--0-0-1--0--0-6--10-6-5-|

Guitar 2: w/tremolo picking and wah/wah - starts on 3rd of guitar 1
|--------------------------------------|
|--------------------------------------|
|-------8----5-----------8--12-8--7----| x4
|-------x----x-----------x--x--x--x----|
|-0--0--6----3--0--0--0--6--10-6--5--0-|
|-0--0----------0--0--0--------------0-|


Tablature Keys:

h - hammer on
p - pull off
b - bend
r - relese bend
~ - sustain
/ - slide up
- slide down
v - vibrato
* - trill
x - mute string
pm - palm mute
nh - natural harmonic
ph - pitch harmonic
x - pick scrape (direction same as slide)