Stop Censorship
 
 

 
 1-9 a b c d e f g h i j k l m n o p q r s t u v w x y z
   Drowning Pool - Tear Away Tab    

ARTIST- DROWNING POOL
TITLE- TEAR AWAY solo

h-hammer om
p-pulloff
b-bend
r-release bend
Drop D tuning- C G C F A d

D|-------------------------------------------------------------
A|---10-------------11------10---1110-------------------
F|-----------12----------------------------------109-------
C|----------------------------------------------------------12-
G|--------------------------------------------------------------
C|--------------------------------------------------------------


D|--------------------------------------------------------------------
A|--------------------------------13b15r13----13b15r13----13b15r13----
F|----------------------------------------------------------------------
C|----10-------13--12---------------------------------------------------
G|-----------------------------------------------------------------------
C|----------------------------0--------------------------------------------
^tremolo picking

D|------------------------------------------------------------------------------
A|--10h13p10-----13---10h13p10--------------------------------------------------
F|-------------------------------------12---12b14r12----------------------------
C|------------------------------------------------------------121012--1012-10-
G|-------------------------------------------------------------------------------
C|-------------------------------------------------------------------------------

D|---------------------
A|---10---------------
F|----------------------
C|--------------10---
G|-------------------
C|--------------------
use a wah pedal or atleast a wah-bar