Stop Censorship
 
 

 
 1-9 a b c d e f g h i j k l m n o p q r s t u v w x y z
   Drowning Pool - Tearing Away Outro Tab    

Mxtabs [http:/www.mxtabs.net]
ARTIST- DROWNING POOL
TITLE- Tear Away Outro

Drop D 1 Step Down - C G C F A D


D|-----------------------------------|----------------------------------------------------|
A|-----------------------------------|----------------------------------------------------|
F|-------------7-----------7---------|--------------3-----3--------------7----------------|
C|----------------------------7------|--------------------------------5-----5-------------|
G|----------5----------5---------5---|---1-------1-----1-----------5-----------5----------|
C|--0--------------------------------|--------------------------5-----------------5-------|


D|-----------------------------------|----------------------------------------------------|
A|-----------------------------------|----------------------------------------------------|
F|-------------7-----------7---------|--------------3----3/7---------------7--------------|
C|----------------------------7------|----------------------------------5-----------------|
G|----------5----------5---------5---|---1-------1-----1-------------5--------------------|
C|--0--------------------------------|----------------------------5-----------------------|