Stop Censorship
 
 

 
 1-9 a b c d e f g h i j k l m n o p q r s t u v w x y z
   Duane Eddy - Hello Tab    

Artist: Duane Eddy
Song: Hello
Tabber: Josh Beavers

Hellay! This song is gay! I died! Ok yo here it goes and im bustin a cap all up in dis joint ya herrd

E-------------------------------------5--|
B-------------------------------------5--|
G-------------------------------------2--|
D-------------------------0000000000-----|
A---------------000000000----------------|
E---00000000000--------------------------|

E---------6-6-6--6-6--8-6-78-4-4-2-345------------------|
B----0-0-0-9-9-8-8-7-76-65-5-5-6-5-45-4-43-3-2-2-1-1-`-`|
G---234-----234-----234-----234---234---234-234---234---|
D---------------234--------234-------------234------234-|
A--------------3--------32-----5444-5445----------------|
E-92883589349283995---4-5-4-2-4-65-4-2-2-34-3-2-23-4-3--|

Im not sure if that was the right frets and strings but it was the right notes
Ok here is the lyrics yo

Verse 1:
Hello
I love boys
and guess what else
im a boy
yeah thats right
im gay
got a problem with that?
well im just kiddin
so ha!
died!
you deserve death you lil` butt

Chorus:
You are anti-american!
You filthy little democrat!
Just kiddin
Im not racist or prejudice
I just hate everyone

Verse 2:
Hello
One time i died
with a grease stick in my ear
what the heck
im dumb
i dont even know whats goin on
you have to be pro to play this riff that im playin
*sigh*

Chorus is played again

Verse 3:
Hello
DIE!
OH MY GAH IM GOIN FREAKIN CRAZY!
WHERE IS THAT BUZZING SOUND COMING FROM?
I HATE THIS COMPUTER IT IS SO GAY
I`LL BURN IT!
YES! BURN IT TO THE GROUND!!!!!!!!!!!!!!!!!

AUEUERS! JUDICULAR! ARGURGLE! AHAHAHAHAHAHAHAHAAHAHAHAH!!
INSANE!



Ok hope you guys enjoyed that one. I`ll will be putting up another duane eddy song soon ok? Download that song it is funny.