Stop Censorship
 
 

 
 1-9 a b c d e f g h i j k l m n o p q r s t u v w x y z
   Duane Eddy - Lil Baby Horsies Tab    

Band:Duane Eddy
Song:Lil Baby Horsies
Tabber:Josh Beavers (staindstuff@excite.com)
Hello this is an OK song by duane headed eddy. Its called Lil Baby Horsies.

E--0-------------0--|
B----0---------0----|
G------0--7--0------|
D------4--7--4------|
A----2---------2----|
E--0-------------0--|

E--0-------0-|
B----0---0---|
G------0-----|
D------0-----|
A----0---0---|
E--0-------0-|

E----------------0-----19--17--15--13--12----------------------|
B----------------0---------------------15(17)--15--14--12------|
G----------------9-----------------------------------------12--|
D----------------9---------------------------------------------|
A--2-2-2-2-2-2-2-7---------------------------------------------|
E--0-0-0-0-0-0-0-0---------------------------------------------|

Those are the main riffs. I am putting this on here from memory so i don`t know
how many times to put on here. Its a kinda girly and gay but its a song so i tabbed
it. As i recall i am so far the only person to tab a Duane Eddy song. By the way
i wanted to tell ya`ll to email me cause my inbox is empty and i am lonely. Ok the
school bell is ringin for 3rd period so i gotta go!