Stop Censorship
 
 

 
 1-9 a b c d e f g h i j k l m n o p q r s t u v w x y z
   Eagles Of Death Metal - So Easy Tab    

Album: Peace Love Death Metal
Tuning: EADGBE


This Song Basically Consists of 3 Main Riffs and 1 lead riff
The rhythm is very easy to catch

Riff 1
|--------------------------------------------------------------------------|
|--------------------------------------------------------------------------|
|--------------------------------------------------------------------------|
|-----------------8-8-10-8-10-8-x-------------------------------x--8-8-8---|
|---6-6-8-6-8-6-x-6-6-6--6-6--6-x-9-9-10-9-11-9-10-9-11-9-10-9--x--6-6-6---|
|---4-4-4-4-4-4-x-----------------7-7--7-7-7--7--7-7-7--7--7-7-------------|

Riff 2 (Chorus)
|------------------------------------------------------------------------|
|------------------------------------------------------------------------|
|------------------------------------------------------------------------|
|----------------------------------x-11-11-13-11-14-11-x-8-8-8-8-8-8-8---|
|---6-6-8-6-9-6-x-6/7-7-9-7-10-7---x--9--9--9- 9--9--9-x-6-6-6-6-6-6-6---|
|---4-4-4-4-4-4-x-4/5-5-5-5--5-5-----------------------------------------|

Riff 3 (post-Chorus)
|------------------------------------------------------------------------------|
|------------------------------------------------------------------------------|
|---------------------------------------------11-11-11--8b9-------------------|
|---8-8-8-8-8-8-8-8-8-x-8-8-10-8-11-8-10--8------------------------------------|
|---6-6-6-6-6-6-6-6-6-x-6-6--6-6-6--6--6--6------------------------------------|
|------------------------------------------------------------------------------|

The Lead part is played over Riff 1 2 times (with slight variations the second time)
|-------------------------------------------------------------------------------------------|
|--------------------------------6----7p6---------------------------------------------------|
|----------4----4b5--------6/8-8---8-------8---------6---6b7-------7-6-------(6)b7r6--------|
|---4/6-6----6--------6------------------------6/9-9---9-------9-6-------9-6-------------6--|
|-------------------------------------------------------------------------------------------|
|-------------------------------------------------------------------------------------------|


Structure

Riff 1 x 4 (two intro, two verse)
Riff 2 x 2
Riff 3 x 1
Riff 1 x 2 (with lead x2 over the top)
Riff 1 x 2
Riff 2 x 2
Riff 3 x 1
Riff 1 x 4 (Doo-Doo bit)
Riff 2 x 2
Riff 3 x 1
Riff 1 x 6 (Doo-Doo outro)

There are also some short lead licks here and there just use the same notes as the main lead part
They are quite easy to make up.