Stop Censorship
 
 

 
 1-9 a b c d e f g h i j k l m n o p q r s t u v w x y z
   Enya - May It Be Tab    

ARTIST: Enya
SONG: "May It Be"/ #18 on the FOTR soundtrack
TUNING: E-A-D-A-Dflat-Fsharp(Gflat)
*basically, just tune the 3string to the same note played on 7th fret D-string (after tuned up to A2string to the same note played on 4th fret G-string (after tuned up to Db) 1string to the same note played on 5th fret B-string
Technically, you can just leave your guitar in STANDARD TUNING; it sounds right, but it’s not in tune with the actual song…


VERSE
F# |---------------------------------------------|
Db|--------------------------3--5----5—3—0-------|
A|--0—2—4-----2—4------------------------0—2---|


F# |---------------------------------------------|
Db|-------------------------3--5---5-8—3—0-------|
A |--0—2—4-----2—4-------------------------0—2--|


F#|------------------------------------|
Db|----3—5---3—5—8—3—0---3—5—0-----3—3-|
A|--2--------------------------2------|


CHORUS: part I
F#|-----------------------------------|
Db|--3---5---8---5---8—--10—--8-87---|
A|-----------------------------------|

F#|-----------------------------------|
Db|--7—--8—--3—3---------3---3—3------|
A|---------------5-54---------------|


CHORUS: part II
F#|-----------------------------------|
Db|--3---5---8---5---8—--10—--8-87---|
A|-----------------------------------|


**F#|----------------------------------|
**Db|--7—--8—--3---5-------3---3—3-----|
***A|-----------------5----------0-----|


Then, you play:
VERSE
CHORUS:part I
CHORUS:part II
Then play the line with asterics

ORCHESTRA PART (outro thing):
F#|--------2-----------2-4-7—6—2----------------0-2-3-2---2—0---|
Db|--0-2-4---4-2-0---4-----------4-2—-0------0-------------3-------|
A|-------------------------------------2-2------------------------|

F#|------------------------------------------|
Db|--3---2—0------0—2—3—--2—3—5—-3---5---7---|
A|-----------2-2----------------------------|