Stop Censorship
 
 

 
 1-9 a b c d e f g h i j k l m n o p q r s t u v w x y z
   Eric Clapton - Bad Love Tab    

This intro is one of my favourites, it’s 100% accurate and it’s pretty easy to learn!!!

Bad Love By Eric Clapton

INTRO:

E---------------------------------------------------------------------
B---------------------------------------------------------------------
G---------------------5----------------------------------------------
D---------------5/7------75----------------------3---5---3-------
A------3---5-------------------------x----3h5---------------------
E---------------------------------------------------------------------


E---------------------------------------------------------------------
B---------------------------------------------------------------------
G---------------------5--------------2----0----0h2p0-------------
D---------------5/7------75--------3----2----0h2p0-------------
A------3---5--------------------------------------------------------
E--------------------------------------------------------------------

E---------------------------------------------------------------------
B---------------------------------------------------------------------
G---------------------5----------------------------------------------
D---------------5/7------75----------------------3---5-----3-----
A------3---5-------------------------------3h5---------------------
E---------------------------------------------------------------------

E---------------------------------------------------------------------
B---------------------------------------------------------------------
G---------------------5---7------------------------------------------
D---------------5/7----------75----3-------------------------------
A------3---5-----------------------------5---------------------------
E----------------------------------------------------------------------

E----------------------8-----------------------------------------------
B---------------8/10-----108------------6---8-----6---------------
G------5---7-----------------------5h7-------------------------------
D----------------------------------------------------------------------
A----------------------------------------------------------------------
E----------------------------------------------------------------------

E----------------------8-----------------------------------------------
B---------------8/10-----108------10---8-----8/108-------------
G------5---7-------------------------10---8-----7/ 97--------------
D----------------------------------------------------------------------
A----------------------------------------------------------------------
E-----------------------------------------------------------------------

E----------------------8-----------------------------------------------
B---------------8/10-----108------------6---8-----6---------------
G------5---7-----------------------5h7-------------------------------
D----------------------------------------------------------------------
A----------------------------------------------------------------------
E----------------------------------------------------------------------

E----------------------8---10----------------------------------------
B---------------8/10------------108-----6-------------------------
G------5---7-----------------------------------7--------------------
D---------------------------------------------------------------------
A---------------------------------------------------------------------
E---------------------------------------------------------------------

If you have any comments or questions then e-mail me at weemandude@hotmail.com