Stop Censorship
 
 

 
 1-9 a b c d e f g h i j k l m n o p q r s t u v w x y z
   Europe - The Final Countdown Tab    

Europe - The Final Countdown

Tabbed By Goldie from JDAB the Jonathan Day Appreciation Band.

Here`s a version of The Final Countdown that`s pretty accurate and simple to follow. Just do as it says!


Intro

e-9p7-9---10p9-10-9-7-10p9-10---7p5-7-5-4----
B-------7---------------------7--------------
G-------------------------------------------- RIFF 1
D--------------------------------------------
A--------------------------------------------
E--------------------------------------------

Rpt x 3 Then...

e-5-4h5/7-5h7/9-7-5-4-2-10-9-9h10p9---------
B-------------------------------------------
G-------------------------------------------
D------------------------------------------- RIFF 2
A-------------------------------------------
E-------------------------------------------

Chorus

Back to Riff 1 with 2nd Guitar playing this:

e-------------------------|------------------------|
B-------------------------|------------------------|
G-------------------------|------------------------|
D-------------------------|7-7-7-7-7-7-7-7-7-7-7-7-|
A-4-4-4-4-4-4-4-4-4-4-4-4-|5-5-5-5-5-5-5-5-5-5-5-5-|
E-2-2-2-2-2-2-2-2-2-2-2-2-|------------------------|

e-------------------------|------------------------|
B-------------------------|------------------------|
G-------------------------|------------------------|
D-4-4-4-4-4-4-4-4-4-4-4-4-|------------------------|
A-2-2-2-2-2-2-2-2-2-2-2-2-|2-2-2-2-2-2-2-2-2-2-2-2-|
E-------------------------|0-0-0-0-0-0-0-0-0-0-0-0-|


e--------------------------------------------------|
B------------------------------3-2---3-2-3-2-------|
G--------------------------------------------------|
D-7---6-7-9---7-9---11-9-7-6-4---------------------|
A--------------------------------------------------|
E--------------------------------------------------|

e---------------------------------|
B---------------------------------|
G---------------------------------|
D-4-------4--2-----7--6--2--4-----|
A---------------4-----------------|
E---------------------------------|

Verse:

e-------------------------------|
B-------------------------------|
G--------------4----------------|
D-4------------4----------------|
A-4----hold----2------2---------|
E-2-------------------0---------|

e-------------------------------|
B-------------------------------|
G-------------------------2-----|
D-4-----------------------2-----|
A-4----hold---------4--4--0-----|
E-2------------0----2--4--------|

e-------------------------|-------------------------|
B-------------------------|-------------------------|
G-------------------------|-------------------------|
D-7-7-7-7-7-7-7-7-7-7-7-7-|-9-9-9-9-9-9-9-9-9-9-9-9-|
A-5-5-5-5-5-5-5-5-5-5-5-5-|-7-7-7-7-7-7-7-7-7-7-7-7-|
E-------------------------|-------------------------|

e-------------------------|-------------------------|
B-------------------------|-------------------------|
G-------------------------|-------------------------|
D-------------------------|-------------------------|
A-7-7-7-7-7-7-4-4-4-4-4-4-|-4-4-4-4-4-4-2-2-2-2-2-2-|
E-5-5-5-5-5-5-4-4-4-4-4-4-|-2-2-2-2-2-2-0-0-0-0-0-0-|

e-------------------------|-------------------------|
B-------------------------|-------------------------|
G-------------------------|-------------------------|
D-7-7-7-7-7-7-7-7-7-7-7-7-|-6-6-6-6-6-6-6-6-6-6-6-6-|
A-5-5-5-5-5-5-5-5-5-5-5-5-|-4-4-4-4-4-4-4-4-4-4-4-4-|
E-------------------------|-------------------------|

e------------------|
B------------------|
G--------------9^--|
D-9-9-9---9-9--9^--|
A-7-7-7---7-7------|
E------------------|


Repeat Chorus


Haven`t got the solo as yet, but I hope I`ve helped so far!

G O L D I E
-----------