Stop Censorship
 
 

 
 1-9 a b c d e f g h i j k l m n o p q r s t u v w x y z
   Europe - The Final Countdown whole Song Tab    

Europe-The final countdown
*************************
tapped by: kevin imbrechts
e-mail: Kevin_imbrechts@hotmail.com

Intro
=====

|-9p7-9---10p9-10-9-7-10p9-10---7p5-7-5-4-7-5|
|-------7---------------------7--------------|
|--------------------------------------------|
|--------------------------------------------|
|--------------------------------------------|
|--------------------------------------------|

then 3x....

|-5-4h5/7-5h7/9-7-5-4-2-10-9-9h10p9---------|
|-------------------------------------------|
|-------------------------------------------|
|-------------------------------------------|
|-------------------------------------------|
|-------------------------------------------|

Chorus
======
guitar 1 plays the chorus and guitar 2 plays the intro

|-------------------------|------------------------|
|-------------------------|------------------------|
|-------------------------|------------------------|
|-------------------------|7-7-7-7-7-7-7-7-7-7-7-7-|
|-4-4-4-4-4-4-4-4-4-4-4-4-|5-5-5-5-5-5-5-5-5-5-5-5-|
|-2-2-2-2-2-2-2-2-2-2-2-2-|------------------------|

|-------------------------|------------------------|
|-------------------------|------------------------|
|-------------------------|------------------------|
|-4-4-4-4-4-4-4-4-4-4-4-4-|------------------------|
|-2-2-2-2-2-2-2-2-2-2-2-2-|2-2-2-2-2-2-2-2-2-2-2-2-|
|-------------------------|0-0-0-0-0-0-0-0-0-0-0-0-|


|--------------------------------------------------|
|------------------------------3-2---3-2-3-2-------|
|--------------------------------------------------|
|-7---6-7-9---7-9---11-9-7-6-4---------------------|
|--------------------------------------------------|
|--------------------------------------------------|

|---------------------------------|
|---------------------------------|
|---------------------------------|
|-4-------4--2-----7--6--2--4-----|
|---------------4-----------------|
|---------------------------------|

Verse
=====
|-------------------------------|
|-------------------------------|
|--------------4----------------|
|-4------------4----------------|
|-4----hold----2------2---------|
|-2-------------------0---------|

|-------------------------------|
|-------------------------------|
|-------------------------2-----|
|-4-----------------------2-----|
|-4----hold---------4--4--0-----|
|-2------------0----2--4--------|

|-------------------------|-------------------------|
|-------------------------|-------------------------|
|-------------------------|-------------------------|
|-7-7-7-7-7-7-7-7-7-7-7-7-|-9-9-9-9-9-9-9-9-9-9-9-9-|
|-5-5-5-5-5-5-5-5-5-5-5-5-|-7-7-7-7-7-7-7-7-7-7-7-7-|
|-------------------------|-------------------------|

|-------------------------|-------------------------|
|-------------------------|-------------------------|
|-------------------------|-------------------------|
|-------------------------|-------------------------|
|-7-7-7-7-7-7-4-4-4-4-4-4-|-4-4-4-4-4-4-2-2-2-2-2-2-|
|-5-5-5-5-5-5-4-4-4-4-4-4-|-2-2-2-2-2-2-0-0-0-0-0-0-|

|-------------------------|-------------------------|
|-------------------------|-------------------------|
|-------------------------|-------------------------|
|-7-7-7-7-7-7-7-7-7-7-7-7-|-6-6-6-6-6-6-6-6-6-6-6-6-|
|-5-5-5-5-5-5-5-5-5-5-5-5-|-4-4-4-4-4-4-4-4-4-4-4-4-|
|-------------------------|-------------------------|

|------------------|
|------------------|
|--------------9^--|
|-9-9-9---9-9--9^--|
|-7-7-7---7-7------|
|------------------|

Chorus
======
|-------------------------|------------------------|
|-------------------------|------------------------|
|-------------------------|------------------------|
|-------------------------|7-7-7-7-7-7-7-7-7-7-7-7-|
|-4-4-4-4-4-4-4-4-4-4-4-4-|5-5-5-5-5-5-5-5-5-5-5-5-|
|-2-2-2-2-2-2-2-2-2-2-2-2-|------------------------|

|-------------------------|------------------------|
|-------------------------|------------------------|
|-------------------------|------------------------|
|-4-4-4-4-4-4-4-4-4-4-4-4-|------------------------|
|-2-2-2-2-2-2-2-2-2-2-2-2-|2-2-2-2-2-2-2-2-2-2-2-2-|
|-------------------------|0-0-0-0-0-0-0-0-0-0-0-0-|


|--------------------------------------------------|
|------------------------------3-2---3-2-3-2-------|
|--------------------------------------------------|
|-7---6-7-9---7-9---11-9-7-6-4---------------------|
|--------------------------------------------------|
|--------------------------------------------------|

|---------------------------------|
|---------------------------------|
|---------------------------------|
|-4-------4--2-----7--6--2--4-----|
|---------------4-----------------|
|---------------------------------|

Solo
====
SOLO:

Bm A D
|-----------------------------------------------------------------------------
|0h3h7p0h3h7p0h3h7p0h3h7p0h3h7p0h2h5h8p2h5h8p2h5h8p2h5h8p2h5h8p2/3h7h10p3h7h10
|.----------------------------------------------------------------------------
|.----------------------------------------------------------------------------
|-----------------------------------------------------------------------------
|-----------------------------------------------------------------------------
t t t t t t t t t t t t
___
|1.
G Em | A
-------------------------------------------------------------------------|----
p3h7h10p3h7h10p3h7h10-8-8------------------------------------------------|----
--------------------------12h14h16p14-1211h12p11--------12-12-12-11-9---|----
-------------------------------------------------14p12h14-------------12-|-12-
-------------------------------------------------------------------------|----
-------------------------------------------------------------------------|----
t t t
___
|2.
Bm F# | A Bm
----------------------------------------------------------||----------------
------10b12-10b12r10--------------------------------------||10b12r10--------
--------------------9-11--9-11-12p11p9--11p9p7--9p7p6-7-9.||--------7-9-11_-
11-9----------------------------------12------11-----9---.||----------------
----12----------------------------------------------------||----------------
----------------------------------------------------------||----------------


C#
----------|
----12----|
-11b13r11-|
----------|
----------|
----------|