Stop Censorship
 
 

 
 1-9 a b c d e f g h i j k l m n o p q r s t u v w x y z
   Everyday Sunday - Mess With Your Mind Tab    

Everyday Sunday: Mess with your Mind
Standard Tuning! eADGBE
Tabber: Jake anti_errorist@hotmail.com

Intro/Verse:

E-----------------------------------------------------------------
B-----------------------------------------------------------------
G-----------------------------------------------------------------
D-5-5-5-5--7-7-7-7--3-3-3-3--5-5-5-5--5-5-5-5--7-7-7-7--3-3-3-3--5
A-5-5-5-5--7-7-7-7--3-3-3-3--5-5-5-5--5-5-5-5--7-7-7-7--3-3-3-3--5
e-3-3-3-3--5-5-5-5--1-1-1-1--3-3-3-3--3-3-3-3--5-5-5-5--1-1-1-1--3

Palm Mute Second Verse********************************************


PreChorus:
E--------------------------------------------------------------------------------------
B--------------------------------------------------------------------------------------
G-------------------------------------------------------5-5-5-5-5-5-5-5-7-7-7-7-7-7-7-7
D-3-3-3-3--7-7-7-7--3-3-3-3--5-5-5-5--3-3-3-3--7-7-7-7--5-5-5-5-5-5-5-5-7-7-7-7-7-7-7-7
A-3-3-3-3--7-7-7-7--3-3-3-3--5-5-5-5--3-3-3-3--7-7-7-7--3-3-3-3-3-3-3-3-5-5-5-5-5-5-5-5
e-1-1-1-1--5-5-5-5--1-1-1-1--3-3-3-3--1-1-1-1--5-5-5-5---------------------------------


Chorus:
E---------------------------------------------------------------
B---------------------------------------------------------------
G-------------------7-7-7-7-------------------------------------
D-5-5-5-5--7-7-7-7--7-7-7-7--7-7-7-7--5-5-5-5--7-7-7-7--3-3-3-3-
A-5-5-5-5--7-7-7-7--5-5-5-5--7-7-7-7--5-5-5-5--7-7-7-7--3-3-3-3-
e-3-3-3-3--5-5-5-5-----------5-5-5-5--3-3-3-3--5-5-5-5--1-1-1-1-

Ur smart figure the picking amounts urself :-P