Stop Censorship
 
 

 
 1-9 a b c d e f g h i j k l m n o p q r s t u v w x y z
   Everyday Sunday - Wait Tab    

Everyday Sunday
"Wait"
Tabbed by Assaultmek

Standard tuning (EADGBE)


Intro/Verse:
-----------------------------------------------------------------
-----1-------1-------1-------1-------1-------1-------1-------1---
---2---2---2---2---2---2---2---2---2---2---2---2---2---2---2---2-
-2-------3-------2-------3-------2-------3-----------------------
-------------------------------------------------3---------------
---------------------------------------------------------3-------


Chorus: (each chord strum 6x)
-----------------------------------
-----------------------------------
---------------------------5-------
---7---3---7---3---7---3---5---5---
---7---3---7---3---7---3---3---5---
---5---1---5---1---5---1-------3---


Middle Part: (w/ modulation effects)
-----------------
-----------------
-7777777-9999999-
-xxxxxxx-xxxxxxx-
-5555555-7777777-
-----------------


Thats the whole song.
Props to Everyday Sunday for a sweet song.
-Assaultmek