Stop Censorship
 
 

 
 1-9 a b c d e f g h i j k l m n o p q r s t u v w x y z
   Fatal Addiction - Dear Friend Tab    

This is a good song
fatal addiction
Dear friend


play twice
e
b 1-1-1-1-1-1-1-1-3-3-3-5-5-5-3-3
g
d
a
E

Then play this twice


e
b
g
d-5-5-5-5-5-5-5-5-7-7-7-9-9-9-7-7
a-3-3-3-3-3-3-3-3-5-5-5-7-7-7-5-5-
E

Verse play this palm muted


e
b
g
d
a-3-3-3-3-3-3-3-3-5-5-5-7-7-7-5-5-
E



Chorus


e
b
g
d-5𧈅5
a-3𦠫3--7-7--5
E 5-5--3


e
b
g
d-5-5-5--
a-3-3-3--7-7--5
E 5-5--3


e
b
g
d-5-5-5-5-5-5-5-5-5-5-5-5-5-5-5-5
a-3-3-3-3-3-3-3-3-3-3-3-3-3-3-3-3--7-7--5--7-7--5
E 5-5--3--5-5--3


then there is this heavy part

e
b
g
d-5-5-8-81010-3-3
a-3-3-6-6-8-8-1-1-
E

the laed guitar on the haevy part reapeat 4 times

e-5-7-7-5-7-7-5-7-7-9-9-9-5-7-7-5-7-7-7-5-7-7-7-9-9-9-9
b------------------------------------------------
g-----------------------------------------------
d---------------------------------------------
a-------------------------------------------
E----------------------------------------










These are the lyrics

Verse one
Dear friend
Why does my mommy hit me all the time
I don抰 know why
Dear friend will u help me out
Would tell the friends at school
I miss them
Cause I don抰 know when ill be back at school
Chorus
How does she do it
I don抰 know
There is something not right
Why does she do it
I don抰 know
He used to be
Such a sweet kid
verse 2
dear freind
sorry bout all the trouble that
ive caused
if u need me
i dont kno
where ill be




Oh and there is a solo here is it I think

e
b13-13-13-13-15-15-15-17-17-17-17-13h15h17p15p13
g
d
a
E