Stop Censorship
 
 

 
 1-9 a b c d e f g h i j k l m n o p q r s t u v w x y z
   Fear Before The March Of Flames - Fashion Tips Baby Tab    

Fear Before The March of Flames
Odd How People Shake

** = palm mute
s = strum this for however long, if you can`t figure that out,
give me your guitar, you don`t need it.

g1+2.
e---------------------------------------|
B---------------9--9--------9--9-----9--|
G---------------12-12-------12-12----12-|
d-10s7s10-10-10-------10-10-------10----|
A-10s7s10-10-10-------10-10-------10----|
D-10s7s10-10-10-------10-10-------10----|
s ** ** ** ** ** ** ** **


e----------------------------------|
B----------9--9--------9--9-----9--|
G----------12-12-------12-12----12-|
d-10-10-10-------10-10-------10----|
A-10-10-10-------10-10-------10----|
D-10-10-10-------10-10-------10----|
s ** ** ** ** ** **


e----------------------------------|
B----------9--9--------9--9-----9--|
G----------12-12-------12-12----12-|
d-10-10-10-------10-10-------10----|
A-10-10-10-------10-10-------10----|
D-10-10-10-------10-10-------10----|
s ** ** ** ** ** **


e---------------------|
B---------------------|
G---------------------|
d-10-10-10--10-10--10-|
A-10-10-10--10-10--10-|
D-10-10-10--10-10--10-|
s ** ** ** ** ** **

into.
g1.
e-----------------------------------------|
B------------------------------------12p0-|
G-9p0-11p0-12p0-11p0-9p0-9p0-9p0-9p0------|
d-----------------------------------------|
A-----------------------------------------|
D-----------------------------------------|


e-----------------------------------------|
B------------------------------------12p0-|
G-9p0-11p0-12p0-11p0-9p0-9p0-9p0-9p0------|
d-----------------------------------------|
A-----------------------------------------|
D-----------------------------------------|


e-----------------------------------------|
B------------------------------------12p0-|
G-9p0-11p0-12p0-11p0-9p0-9p0-9p0-9p0------|
d-----------------------------------------|
A-----------------------------------------|
D-----------------------------------------|


e-----------------------------------------|
B------------------------------------12p0-|
G-9p0-11p0-12p0-11p0-9p0-9p0-9p0-9p0------|
d-----------------------------------------|
A-----------------------------------------|
D-----------------------------------------|

into.
g1.
e-----|
B-----|
G-5-2-|
d-5-2-|
A-3-0-|
D-----|
s s

g2.
e-------|
B-0--0--|
G-12-11-|
d-------|
A-------|
D-------|
s s

into.
g1.
e-------------|
B-12-12-12-12-|
G-14-14-14-14-| repeat a bunch.
d-------------|
A-------------|
D-------------|

g2.
rest.

into.
g1.
e-----|
B-----|
G-5-2-|
d-5-2-|
A-3-0-|
D-----|
s s

g2.
mess around with.
e-------|
B-0--0--|
G-12-11-|
d-------|
A-------|
D-------|
s s
throwing the occasional high B in on the b string.

into.
g1+2.
end on this chord.
e----|
B-12-|
G-12-|
d-10-|
A-10-|
D-10-|


=O. that`s it. guitar two, play octaves. and throw in pinch harmonics to make it sound metal. ;)


-glenn