Stop Censorship
 
 

 
 1-9 a b c d e f g h i j k l m n o p q r s t u v w x y z
   Fear Before The March Of Flames - Given To Dreams Tab    

Given To Dreams
e----------------------------------------------
B---------------------------------------------
G-----------------------------------------------
D-4-4-4--0--4-4-4-0-----------------------------
A-4-4-4--0--4-4-4-0-----------------------------
D-4-4-4--0--4-4-4-0-----------------------------

e--------------------------------------------------
B-------------------------------------------------
G--11-11-11-----11---11-11--11- --11-------------
D-------------9---------------- -9-----4-4-4-0----
A-----------9------------------9-------4-4-4-0----
D--------------------------------------4-4-4-0----
^^One time I think he just palm mutes this whole part

e----------------------------------------------
B----------------------------------------------
G---------------------------------------------
D-4p0-0---4p0-0-------------------------------
A-4p0-0---4p0-0-------------------------------
D-4p0-0---4p0-0------------------------------

e--------------------------------------------------
B--------------------10------------9h10------------
G---------------11------11-----11--------11--------
D--0--------9----------------9----------------------
A--0-----------------------------------------------
D--0-------------------------------------------------

It is somewhere in the range of this, I hear open B but I cant get the other stuff. Sounds close to me.

Then basically is just going between open D and F# power chords

e-------------------------------------------
B-------------------------------------------
G--------------------------------------------
D-4-4-4-4-4-4-4-4-4--0-0-0-0-0-0-0-0-0-0-----
A-4-4-4-4-4-4-4-4-4--0-0-0-0-0-0-0-0-0-0-----
D-4-4-4-4-4-4-4-4-4--0-0-0-0-0-0-0-0-0-0------


piece them together, figure out the timings.

thanks to anyone who supports FBTMOF. i see random tabs pieced everywhere so what i saw i pieced together myself and posted on MXTabs, thanks.

-glenn