Stop Censorship
 
 

 
 1-9 a b c d e f g h i j k l m n o p q r s t u v w x y z
   Fear Before The March Of Flames - Should Have Stayed In The Shallows Tab    

Fear Before the March of Flames
Should Have Stayed In The Shallows


tabbed by Joe Warzala: crystalclrblader@usa.com



e---------------------| ----------------------------|
B---------------------| ----------------------------|
G--4-4-xxxx-4-4-4-4---| INTRO --4-4-xxxx-6-xxxx-7---------| INTRO
D--5-6-xxxx-6-5-5-6---| 8x --5-6-xxxx-6-xxxx-6---------| 4x
A---------------------| ----------------------------|
D---------------------| ----------------------------|


e---------------------------------------|
B----------5------------5---------------|
G----------x------------x---------------| (x6)
D--6-3-----3----6-3-----3----6-3--------|
A------0------------0------------0------|
D--------0------------0------------0----|

e--1-xxxxxxxx-1-xxxxxxxx-------|
B--0-xxxxxxxx-0-xxxxxxxx-------|
G--1-xxxxxxxx-1-xxxxxxxx-------| (x2)
D--3-xxxxxxxx-3-xxxxxxxx-------|
A------------------------------|
D------------------------------|

e-------------------------------------------------------------------------------|
B-------------------------------------------------------------------------------|
G-------------------------------------------------------------------------------|
D--6-3----------6-3-------6-3----------6-3-6-7-----6-3---------6-3-6-7-----6-3--|
A------0------------0---------0-------------------------------------------------|
D--------0-0-0--------0---------0-0-0----------0-0-----0-0-0-0---------0-0------|


e-------------------------------| ----------------------------
B--------6-5---------6-5--------| -------------------6-5------
G----6-7-----6-0-6-7------------| (x3) --6-7-----6-7----------6-0-- (4th time)
D-------------------------------| ----------------------------
A-------------------------0-00--| ------0-0-----0-00----------
D-------------------------0-00--| ------0-0-----0-00----------

e--1-xxxxxxxx-1-xxxxxxxx-------|
B--0-xxxxxxxx-0-xxxxxxxx-------|
G--1-xxxxxxxx-1-xxxxxxxx-------| (x2)
D--3-xxxxxxxx-3-xxxxxxxx-------|
A------------------------------|
D------------------------------|

e---------------------|
B---------------------|
G--4-4-xxxx-4-4-4-4---| (x8)
D--5-6-xxxx-6-5-5-6---|
A---------------------|
D---------------------|

e-------------------------------------------|
B-------------------------------------------|
G-------------------------------------------| (x8)
D--6-3----------6-3------------6-3----------| with variations
A------0---0-0------0---xxxxxx-----0---0-0--|
D--------0-0-0--------0-xxxxxx-------0-0-0--|


e--1-1-1-1-1-1-1-1-1-1---------|
B--0-0-0-0-0-0-0-0-0-0---------|
G--1-1-1-1-1-1-1-1-1-1---------| (x4)
D--3-3-3-3-3-3-3-3-3-3---------|
A------------------------------|
D------------------------------|


e---------------------------------------------------|
B---------------------------------------------------|
G---------------------------------------------------|
D--0----6----0----6----0----6----5-5-5-5-5-5-5-5----|
A--0----6----0----6----0----6----4-4-4-4-4-4-4-4----|
D--0----6----0----6----0----6----5-5-5-5-5-5-5-5----|

e---------------------------------------------------|
B---------------------------------------------------|
G---------------------------------------------------|
D--0----6----0----6----0----6----7-7-7-7-7-7-7-7----|
A--0----6----0----6----0----6----7-7-7-7-7-7-7-7----|
D--0----6----0----6----0----6----7-7-7-7-7-7-7-7----|

e---------------------------------------------------|
B---------------------------------------------------|
G---------------------------------------------------|
D--0----6----0----6----0----6----5-5-5-5-5-5-5-5----|
A--0----6----0----6----0----6----4-4-4-4-4-4-4-4----|
D--0----6----0----6----0----6----5-5-5-5-5-5-5-5----|

e---------------------------------------------------|
B------------------------------------------------0--|
G---------------------------------------------------|
D--0----6----0----6----0----6----7-7-7-7-7-7-7-7----|
A--0----6----0----6----0----6----7-7-7-7-7-7-7-7----|
D--0----6----0----6----0----6----7-7-7-7-7-7-7-7----|

e--1-1-1-1-1-1-1-1-1-1---------|
B--0-0-0-0-0-0-0-0-0-0---------|
G--1-1-1-1-1-1-1-1-1-1---------| (x4)
D--3-3-3-3-3-3-3-3-3-3---------|
A------------------------------|
D------------------------------|

e---------------------| ----------------------------|
B---------------------| ----------------------------|
G--4-4-xxxx-4-4-4-4---| --4-4-xxxx-6-xxxx-7---------|
D--5-6-xxxx-6-5-5-6---| (x4) --5-6-xxxx-6-xxxx-6---------| (x8)
A---------------------| ----------------------------|
D---------------------| ----------------------------|



x=mute string