Stop Censorship
 
 

 
 1-9 a b c d e f g h i j k l m n o p q r s t u v w x y z
   Fear Before The March Of Flames - The 20th Century Was Entirely Mine Tab    

band: fear before the march of flames
song: the 20th century was entirely mine
album: odd how people shake
tabbed by:gabriel rodriguez

drop d

-it is really important that you listen to the song while
first playing this, since a lot of things go on in this song.

-i tabbed out the notes so the rhythm is your interpretation.
listen to the music and figure out how things go.


intro (on the, surface where we fought..)
e|----------------------------------------------------------------|
b|------------------14-14-14-14-14--------------------------------|
g|-13-13-13-13-13---17-17-17-17-17--------------------------------|
d|-17-17-17-17-17---0--0--0--0--0---7-----7-----7-6-7-----7-----7-|
a|-0--0--0--0--0----0--0--0--0--0-----------4-4-------------4-4---|
e|-0--0--0--0--0----------------------4-4-------------4-4---------|

2nd time
e|---------------------------------|
b|------------------14-14-14-14-14-|
g|-13-13-13-13-13---17-17-17-17-17-|
d|-17-17-17-17-17---0--0--0--0--0--|
a|-0--0--0--0--0----0--0--0--0--0--|
e|-0--0--0--0--0-------------------|

(take on water, a diver descends...)
e|-------------------------------|
b|-------------------------------|
g|-------------------------------|
d|-7-----7-----7-6-7-----7-----7-| x4
a|---------4-4-------------4-4---|
e|---4-4-------------4-4---------|


guitar 1
e|--------------------------------------------|
b|--------------------------------------------|
g|-12--12--12-xx-9---12--12--12-xx-9----------|
d|-11--11--11-xx-13--11--11--11-xx-13---------|
a|--------------------------------------------|
e|--------------------------------------------|

guitars 1 and 2
e|----------------------------------|
b|----------------------------------|
g|-7--7--7-xx-9---7--7--7-xx-9------|
d|-6--6--6-xx-13--6--6--6-xx-13-----|
a|----------------------------------|
e|----------------------------------|


drums, then

guitar 1 ([sunken ships belong underwater] did no one tell you...)
e|--------------------------------------------------|
b|--------------------------------------------------|
g|--------------------------------------------------|
d|--------------------------------------------------|
a|-7---7-5---5-7---7-5---5-7---7-5---5-7---7-5---5--|
e|---8-----8-----8-----8-----8-----8-----8-----8----|


then guitar 2 comes in while above is played 2 times again.

guitar 2 (they are so quickly forgotten...)
e|---------|------------------------------|
b|-pickup--|------------------------------|
g|-8--8--8-|-8---8-8--8--8---8---8-8--8--8|
d|-7--7--7-|-7---7-7--7--7---7---7-7--7--7| second measure
a|---------|------------------------------| x4
e|---------|------------------------------|

then
(how many will you take with you...)
e|-------|-------------------------------------|
b|-------|-------------------------------------|
g|-------|-------------------------------------|
d|-7-7-7-|-7---7-7--7--7---7---7-7--7--7-------|
a|-7-7-7-|-7---7-7--7--7---7---7-7--7--7-------|
e|-7-7-7-|-7---7-7--7--7---7---7-7--7--7-------|

guitar 2 plays once somewhere
e|-----------|
b|-13/-------|
g|-----------|
d|-----------|
a|-----------|
e|-----------|



guitar 1
notes in parentheses or played with both guitar 1 and 2.
e|-----------|-----------------------------------|
b|-----------|-----------------------------------|
g|-(8--8--8)-|-8---8-(8--8--8)---8---8-(8--8--8)-|
d|-(7--7--7)-|-7---7-(7--7--7)---7---7-(7--7--7)-|
a|-----------|-----------------------------------|
e|-----------|-----------------------------------|


then
guitar 1 (so when your insides rot...)
e|-----------|-------------------------------|
b|--pickup---|-------------------------------| |
g|-8--8--8---|-8---8-8--8--8---8---8-8--8--8-| |
d|-7--7--7---|-7---7-7--7--7---7---7-7--7--7-| |
a|-----------|-------------------------------| |
e|-----------|-------------------------------| | played
guitar 2 | x3
e|----------------------------------------------------| |
b|----------------------------------------------------| |
g|-8--8--8-------8/08---8---8-8--8--8----------------| |
d|-7--7--7--0-0--7/07---7---7-7--7--7-0-0------------| |
a|----------0-0------------------------0-0-7---7-5----| |
e|----------0-0------------------------0-0---8-----8--| /




guitar 2 plays this over and over under guitar 1
e|----------------------------------|
b|----------------------------------|
g|----------------------------------|
d|--8-8-8-8-8-8-8-8-7-7-7-7-7-7-7---|
a|-4-4-4-4-4-4-4-4-4-4-4-4-4-4-4----|
e|----------------------------------|
pm . . . . . . . . . . . . . . . . .

guitar 1 (a diver descends, in pursuit of riches...)
e|------------------|------------------------------|
b|------------------|------------------------------| 2nd
g|------------------|------------------------------| measure played
d|-8----7----8----7-|-8-8-8---8-8-8--7-7-7--7-7-7--| x2
a|-4----4----4----4-|------------------------------| (quietly)
e|------------------|------------------------------|

e|-------------------------------------|
b|-------------------------------------|
g|-------------------------------------| x4
d|-8----8-8----8----8-7---7-7---7---7--|
a|---10-----10---10-----9-----9---9----|
e|-------------------------------------|



then back to

e|---------------------------------|
b|------------------14-14-14-14-14-|
g|-13-13-13-13-13---17-17-17-17-17-|
d|-17-17-17-17-17---0--0--0--0--0--| x2
a|-0--0--0--0--0----0--0--0--0--0--|
e|-0--0--0--0--0-------------------|


e|----------------------------------|
b|----------------------------------|
g|----------------------------------|
d|--8-8-8-8-8-8-8-8-7-7-7-7-7-7-7-7-| x2
a|-4-4-4-4-4-4-4-4-4-4-4-4-4-4-4-4--|
e|----------------------------------|
pm . . . . . . . . . . . . . . . . .



e|---------------------------------|
b|------------------14-14-14-14-14-|
g|-13-13-13-13-13---17-17-17-17-17-|
d|-17-17-17-17-17---0--0--0--0--0--|
a|-0--0--0--0--0----0--0--0--0--0--|
e|-0--0--0--0--0-------------------|

e|-------------------------------|
b|-------------------------------|
g|-------------------------------|
d|-7-----7-----7-6-7-----7-----7-| x4
a|---------4-4-------------4-4---|
e|---4-4-------------4-4---------|




guitar 1
e|--------------------------------------------|
b|--------------------------------------------|
g|-12--12--12-xx-9---12--12--12-xx-9----------|
d|-11--11--11-xx-13--11--11--11-xx-13---------|
a|--------------------------------------------|
e|--------------------------------------------|

guitars 1 and 2 (we knew you didn`t have it...)
e|----------------------------------|
b|----------------------------------|
g|-7--7--7-xx-9---7--7--7-xx-9------|
d|-6--6--6-xx-13--6--6--6-xx-13-----|
a|----------------------------------|
e|----------------------------------|



then guitars go chaotic here, i cant figure it out. but thats about it.

any comments, email: robotwithawing@yahoo.com