Stop Censorship
 
 

 
 1-9 a b c d e f g h i j k l m n o p q r s t u v w x y z
   Finntroll - Svartberg Tab    

Finntroll: Svartberg

From the album `Midnattens Widunder` (Spinefarm)
All work protected by copyright.

For corrections, notifications and trollish laments:
guy@freemail.hammerfall.net


tune to E

*: palm mute

riff 1
|----------------------------------------|
|----------------------------------------|
|----------------------------------------|
|--------------------------2-4-2-0-2-0---|
|-2-0-2-5-4-2-0-2-4-2-0-2--------------2-|
|----------------------------------------|

riff 2
|--------------|
|--------------|
|------------5-|
|-44-44-44-4-3-|
|-22-22-22-2---|
|--------------|

riff3
|------------------------|
|------------------------|
|------------------------|
|-44----44----44----5----|
|-22----22----22----3----|
|----00----00----00------|
** ** **

riff 4
|------------|
|------------|
|------------|
|----4----5--|
|-2222-2223--|
|------------|
*** ***

riff 5
|----------|
|----------|
|----------|
|-5-4-3-2--|
|-3-2-1-0--|
|----------|

riff 6
|--------------------------------|
|--------------------------------|
|--------------------------------|
|--------------------------------|
|----2320----2320----2320--------|
|-00------00------00------25320--|

riff 7
|--------------------------------------|
|--------------------------------------|
|--------------------------------------|
|-4-5-4-2-0---4-5-4-2-0---4-5-4-2-0----|
|-----------4-----------4-----------2--|
|--------------------------------------|

That`s about it. Repeats I leave to you. (don`t want to make it too easy now, do
I?)