Stop Censorship
 
 

 
 1-9 a b c d e f g h i j k l m n o p q r s t u v w x y z
   Future Leaders Of The World - Let Me Out Tab    


Artist: Future Leaders of the World
Song: Let Me Out
Tabber: Matthew Ramirez
Email: candysez@hotmail.com

Tuning Db Ab Db Gb Bb Eb

Intro: clean
eb|-----------------------------||
Bb|----------------------3------||
Gb|----4----6-------------2-----||o
Db|--4--4----4--55-xx-0-0--0----||o X4
Ab|-2------4----55-xx-0-0-------||
Db|-------4-----55-xx-0-0-------||

Chorus: distorted
eb|--------------------------------||
Bb|--------------------------------||
Gb|-4-4----------------------------||o
Db|-4-4--4-5-xx--0-0-00--5555-4444-||o X4
Ab|-2-2--4-5-xx--0-0-00--5555-4444-||
Db|------4-5-xx--0-0-00--5555-4444-||

Verse: clean
eb|----------------0----------||
Bb|-----------------3---3-----||
Gb|-4-4--------------2---2----||o
Db|-4-4--4-5-xx--0----0---0---||o X6
Ab|-2-2--4-5-xx--0---------0--||
Db|------4-5-xx--0------------||

Chorus: distorted
eb|--------------------------------||
Bb|--------------------------------||
Gb|-4-4----------------------------||o
Db|-4-4--4-5-xx--0-0-00--5555-4444-||o X4
Ab|-2-2--4-5-xx--0-0-00--5555-4444-||
Db|------4-5-xx--0-0-00--5555-4444-||

Verse: clean
eb|----------------0----------||
Bb|-----------------3---3-----||
Gb|-4-4--------------2---2----||o
Db|-4-4--4-5-xx--0----0---0---||o X6
Ab|-2-2--4-5-xx--0---------0--||
Db|------4-5-xx--0------------||




Chorus: distorted
eb|--------------------------------||
Bb|--------------------------------||
Gb|-4-4----------------------------||o
Db|-4-4--4-5-xx--0-0-00--5555-4444-||o X4
Ab|-2-2--4-5-xx--0-0-00--5555-4444-||
Db|------4-5-xx--0-0-00--5555-4444-||

Bridge: distorted
eb|-------------------------------------------||
Bb|-------------------------------------------||
Gb|-44-xxxx-----------------------------------||o
Db|-44-xxxx-44-xx-55-xx--00-xxxx--55-xx-44-xx-||o X4
Ab|-22-xxxx-44-xx-55-xx--00-xxxx--55-xx-44-xx-||
Db|---------44-xx-55-xx--00-xxxx--55-xx-44-xx-||

Outro: distorted
eb|-------------------------------------------||
Bb|-------------------------------------------||
Gb|-44444444----------------------------------||o
Db|-44444444-4444--5555--00000000-5555--4444--||o X4
Ab|-22222222-4444--5555--00000000-5555--4444--||
Db|----------4444--5555--00000000-5555--4444--||