Stop Censorship
 
 

 
 1-9 a b c d e f g h i j k l m n o p q r s t u v w x y z
   Ghoti Hook - Banana Man Tab    

Artist: Ghoti Hook
song: Banana man
Album: Banana man
Transcribed by: The Bern!!
email: the_Bern@msn.com

this is a really catchy song! its not hard to play, its just
really fast. all comments and corrections are welcome. this
is my first tab so dont get mad if its not great. well here
it is!




this bar is only played the first time,
e|-------------------------|------------------------|
B|-------------------------|------------------------|
G|-------------------------|------------------------|
D|------777777-------555555|------777777-------5-5--|
A|555-5-555555-555-5-333333|555-5-555555--555-53-35-|
E|333-3--------333-3-------|333-3---------333-3---3-|




after that, play this three times
e|-------------------------|-----------------------|
B|-------------------------|-----------------------|
G|-------------------------|-----------------------|
D|------777777-------555555|------777777----5-5----|
A|555-5-555555-555-5-333333|555-5-555555----3-3--5-|
E|333-3--------333-3-------|333-3----------------3-|




then the verse goes:
e|-------------------------|----------------------------|
B|-------------------------|----------------------------|
G|-------------------------|----------------------------|
D|------777777-------------|------777777-------5555555--|
A|555-5-555555-555-5-xxxxxx|555-5-555555-555-5-3333333--|
E|333-3--------333-3-xxxxxx|333-3--------333-3----------|



the pre-chorus:
e|-------------------------|---------------------------------|
B|-------------------------|---------------------------------|
G|-------------------------|---------------------------------|
D|-------------------------|---------------------------------|
A|555555556666666677777777-|7>1------------------------------|
E|333333334444444455555555-|5>3------------------------------|



Chorus:
|------x3--|
e|----------|----------|
B|----------|----------|
G|----------|----------|
D|------7-5-|--77775555|
A|5-55-55-3-|--55553333|
E|3-33-3----|----------|

then you play the intro section again, then the verse
then pre-chorus and chorus. sorry bout the solo, im not a
guitarist, so im not great with solos and stuff. e-mail
me at the_Bern@msn.com if you figure it out. i just
wanted to give you the main beats. tell me what you think
of this though!