Stop Censorship
 
 

 
 1-9 a b c d e f g h i j k l m n o p q r s t u v w x y z
   God Dethroned - Nocturnal Tab    

ok this is mainly from memory so it might not be right i think i donít have that end of the third riff quite right but it sounds ok its tuned down one full step Dgc etc




Riff 1 tremolo picking

d------------------------------------------------------------------
a------------------------------------------------------------------
f------------------------------------------------------------------
c------------------------------------------------------------------
g-----5-7-8-7---3-5-3---------------------5-7-8-7---3-5-3-----7----
D---5-------------------7-8-7-3--------5------------------7-8---8--

Riff 2 tremolo picking

----------------------
----------------------
----------------------
----------------------
---7-8-10---5-8-7-----
----------------------


Riff 3 tremolo (not sure about this one)

------------------------------------------------------------------
------------------------------------------------------------------
---------------------------5----5---------------------------------
----7-----7-------------------------------------------------------
----------------7--------3----3---------5----3--------------------
-5-----5----------8-7-----------------3----1----------------------


thats basically it and
It finishes on an A5 i think