Stop Censorship
 
 

 
 1-9 a b c d e f g h i j k l m n o p q r s t u v w x y z
   God Dethroned - Serpent King Tab    

Serpent King by God Dethroned
From Bloody Blasphemy CD

Tune to D

Intro/Fill 1
|-----------|
|-----------|
|-4---------|
|-4---5-7---|
|-2---5-7---|
|-----3-5---|

Riff 1 2x 1 2
|-------------------------------------|---|---|
|-------------------------------------|---|---|
|-------------------------------------|---|---|
|----4----4----4-5------5----5----5-4-|-0-|-7-|
|-222--222--222----3-333--333--333----|---|---|
|-------------------------------------|---|---|
*** *** *** *** *** ***
"AAAAAAAAAAAAAAAAAHHHHHHHHHHHH!!!!!!!!!!!"

Riff 2
|--------------------------------------------|
|--------------------------------------------|
|--------------------------------------------|
|----4----4----4----4----4----4----5----5h7--|
|-222--222--333--333--555--555--777--777-----|
|--------------------------------------------|
*** *** *** *** *** *** *** ***
Play riff 1 Play riff 2 Play fill 1

Riff 3
|---0-------0-------0-------0------|
|-----0-------0-------0-------0----|
|-------0-4-----0-------0-------0--|
|-2-------4-------2-------5--------|
|-2-------2-------2-------5--------|
|-0---------------0-------3--------|
Play riff 1 Play riff 2 Play fill 1 Play riff 3

Riff 4 (weird timing)
|---0---------0-------------------|
|-----0---------0-----------------|
|-------0---------0---7-----------|
|-7-------5-4-------5-7--5-4-5----|
|-7-------5-4-------5-5--5-4-5----|
|-5-------3-2-------3----3-2-3----|

Riff 5, gtr.2 plays the chords above the tablines E5 E5 G5 G5
|-----------------------------------------------------------------|
|-----------------------------------------------------------------|
|-------7---------------7---------------4---------------4---------|
|---9-7-----9-7-9---9-7-----9-7-9---5-4-----5-4-5---5-4-----5-4-5-|
|-7---------------7---------------2---------------3---------------|
|-----------------------------------------------------------------|

Fill 2
|------------|
|------------|
|------------|
|-5-4---5-7--|
|-5-4---5-7--|
|-3-2---3-5--| Play riff 1 Play riff 2 Play fill 1 Play riff 3 Play riff 4