Stop Censorship
 
 

 
 1-9 a b c d e f g h i j k l m n o p q r s t u v w x y z
   God Dethroned - Soul Capture 1562 Solo Tab    

Ok very easy solo but you’re gonna have to listen to the song for the timing especially the bends at the start as I cant tab for ***.




------------------------------------------------------------------
------------------------------------------------------------------
---------10h12-12^14^12—10h12---12^14^12p10---12^14^12---10h12----
---10h12----------------------------------------------------------
------------------------------------------------------------------
------------------------------------------------------------------





------------------------------------------------------------------
-----------------------------------------------13-13-15-15-17-----
-9h10p9----------9------------------------------------------------
---------12--10----12-10-9---12-10-9s5----------------------------
-----------------------------------------7-8----------------------
------------------------------------------------------------------




-----------------------13h15h17p15p13h15h17p15p13h15—
--17-15-13—13^15^13^15-------------------------------
-----------------------------------------------------
-----------------------------------------------------
-----------------------------------------------------
-----------------------------------------------------


---15^17—15^17^15—15p12--------------------------
------------------------15---------------------------
-----------------------------------------------------
-----------------------------------------------------
-----------------------------------------------------
-----------------------------------------------------
^= bend