Stop Censorship
 
 

 
 1-9 a b c d e f g h i j k l m n o p q r s t u v w x y z
   Graves - Casket Tab    

Artist: Graves
Song: Casket
Tabbed by: West (sk8_666slip@hotmail.com)

tuning: Standard or 1/2 step down(not sure what Graves uses)
Pm ... = Palm Mute
/ = slide

This is my first tab that I tabbed myself. It sounds 99% right to me, but it my not be. You can
play this in Standard tuning but I play it 1/2 step down cause I am to lazy to tune back, either
way sounds the same. Enjoy!

Intro
|----------------------------------------------------------------------
|----------------------------------------------------------------------
|-6-6-6-6-6-6-6-6------------------------------------------------------
|-6-6-6-6-6-6-6-6--6-6-6-6-6-6-6-6--8-8-8-8-8-8-8-8--4-4-4-4-6-6-6-6--- x2
|-4-4-4-4-4-4-4-4--6-6-6-6-6-6-6-6--8-8-8-8-8-8-8-8--4-4-4-4-6-6-6-6---
|------------------4-4-4-4-4-4-4-4--6-6-6-6-6-6-6-6--2-2-2-2-4-4-4-4---

Riff 1
|----------------------------------------------------------------------
|----------------------------------------------------------------------
|-6-6-6-6-6-6-6-6------------------------------------------------------
|-6-6-6-6-6-6-6-6--6-6-6-6-6-6-6-6--8-8-8-8-8-8-8-8--4-4-4-4-4-4-4-4--- x2
|-4-4-4-4-4-4-4-4--6-6-6-6-6-6-6-6--8-8-8-8-8-8-8-8--4-4-4-4-4-4-4-4---
|------------------4-4-4-4-4-4-4-4--6-6-6-6-6-6-6-6--2-2-2-2-2-2-2-2---
PM. . . . . . . . . . . . . . . . . . . . . . . . . . . . .

Riff 2 x1 x4
|-----------------------------------------------------------------------|-----------|
|-----------------------------------------------------------------------|-----------|
|-6-6-6-6-6-------------------------------------------------------------|-3-3-3-3/2-|
|-6-6-6-6-6--6-6-6-6-6/8-8-8-8-8/4-4-4-4-4/6-6-6-6-4/4-4-4-4-4/3-3-3-3-3|-3-3-3-3/2-|
|-4-4-4-4-4--6-6-6-6-6/8-8-8-8-8/4-4-4-4-4/6-6-6-6-4/4-4-4-4-4/3-3-3-3-3|-1-1-1-1/0-|
|------------4-4-4-4-4/6-6-6-6-6/2-2-2-2-2/4-4-4-4-4/2-2-2-2-2/1-1-1-1-1|-----------|
Pm . . . . . . . . . . . . . . . . . . . . .

Riff 1
|----------------------------------------------------------------------
|----------------------------------------------------------------------
|-6-6-6-6-6-6-6-6------------------------------------------------------
|-6-6-6-6-6-6-6-6--6-6-6-6-6-6-6-6--8-8-8-8-8-8-8-8--4-4-4-4-4-4-4-4--- x2
|-4-4-4-4-4-4-4-4--6-6-6-6-6-6-6-6--8-8-8-8-8-8-8-8--4-4-4-4-4-4-4-4---
|------------------4-4-4-4-4-4-4-4--6-6-6-6-6-6-6-6--2-2-2-2-2-2-2-2---
PM. . . . . . . . . . . . . . . . . . . . . . . . . . . . .

Riff 2 x1 x4
|-----------------------------------------------------------------------|-----------|
|-----------------------------------------------------------------------|-----------|
|-6-6-6-6-6-------------------------------------------------------------|-3-3-3-3/2-|
|-6-6-6-6-6--6-6-6-6-6/8-8-8-8-8/4-4-4-4-4/6-6-6-6-4/4-4-4-4-4/3-3-3-3-3|-3-3-3-3/2-|
|-4-4-4-4-4--6-6-6-6-6/8-8-8-8-8/4-4-4-4-4/6-6-6-6-4/4-4-4-4-4/3-3-3-3-3|-1-1-1-1/0-|
|------------4-4-4-4-4/6-6-6-6-6/2-2-2-2-2/4-4-4-4-4/2-2-2-2-2/1-1-1-1-1|-----------|
Pm . . . . . . . . . . . . . . . . . . . . .

Chorus:
|----------------------------------------------------------------------
|----------------------------------------------------------------------
|-6-6-6-6-6-6-6-6------------------------------------------------------
|-6-6-6-6-6-6-6-6--6-6-6-6-6-6-6-6--8-8-8-8-8-8-8-8--4-4-4-4-6-6-6-6--- x2
|-4-4-4-4-4-4-4-4--6-6-6-6-6-6-6-6--8-8-8-8-8-8-8-8--4-4-4-4-6-6-6-6---
|------------------4-4-4-4-4-4-4-4--6-6-6-6-6-6-6-6--2-2-2-2-4-4-4-4---

Riff 3
|---------------------------
|---------------------------
|-6-6-6-6-------------------
|-6-6-6-6--4-4-4-4--6-6-6-6- x4
|-4-4-4-4--4-4-4-4--6-6-6-6-
|----------2-2-2-2--4-4-4-4-

Solo:
|-------------------------------------------------
|---------------------------------5h7-3h7-2h3-----
|-------------------------------------------------
|------------------------------------------------- x1
|-5---4-5-4-2---4-5-4--4-5-4----------------------
|--------------------3------5---------------------


Outro
|---------------------------------------------------------------------------
|---------------------------------------------------------------------------
|-6-6-6-6-6-------------------------------------------------------------3--- x1
|-6-6-6-6-6-6-6-6-6-6/8-8-8-8-8/4-4-4-4-2/6-6-6-6-6/4-4-4-4-4/3-3-3-3-3-3---
|-4-4-4-4-4-6-6-6-6-6/8-8-8-8-8/4-4-4-4-2/6-6-6-6-6/4-4-4-4-4/3-3-3-3-3-1-Let Ring out
|-----------4-4-4-4-4/6-6-6-6-6/2-2-2-2-2/4-4-4-4-4/2-2-2-2-4/1-1-1-1-1-----
Pm . . . . . . . . . . . . . . . . . .


That`s it. Pretty Easy!
Send any comments you have on this tab to: sk8_666slip@hotmail.com