Stop Censorship
 
 

 
 1-9 a b c d e f g h i j k l m n o p q r s t u v w x y z
   Graves - One Million Light Years From Her Tab    

Band: Graves
Song: One Million Light Years From Her
Album:
Tuning: Standard

By: WC Milktoast

note: I am not displaying the timing right on the tab

palm muting = .
slide = /
let ring = r
Up Stroke = +

RiffA palm muting is let off hear and there listen for it
E-----------------------------------------------
B-----------------------------------------------
G-----------------------------------------------
D-99999999222222224444444499999999--------------
A-99999999222222224444444499999999--------------
E-77777777000000002222222277777777--------------
................................

Riff B
E-----------------------------------------------
B-----------------------------------------------
G-----------------------------------------------
D-99999999222222224444444499999999--------------
A-99999999222222224444444499999999--------------
E-77777777000000002222222277777777--------------

Riff C
E---------------
B---------------
G---------------
D-9--6--2---44--
A-9--6--2---44--
E-7--4--0---22--

Riff D
E--------------------------------------
B--------------------------------------
G-4444-----4444-----4444---------------
D-4444-2-2-4444-2-2-4444-2-2-444--444--
A-2222-2-2-2222-2-2-2222-2-2-444--444--
E------0-0------0-0------0-0-222--222--

Bridge
+ + + + + + + 3x 2x
E------------------------------|-----------------
B------------------------------|-----------------
G------------------------------|-----------------
D-9-9-8-8-6-6-4-4-2-2-2-2-4----|-----------------
A-9-9-8-8-6-6-4-4-2-2-2-2-4----|-----------------
E-7-7-6-6-4-4-2-2-0-0-0-0-2----|-7-6-4-2-0-0--2--
. . . . . .

Order
Riff A 2x
Riff B 2x
Riff B 2x W/ variations
Riff C 2x
Riff D 1x
Riff A 1x
Riff A 1x but slow
Riff B 2x
Riff B 2x w/ variations
Riff C 2x
Riff D 1x
Bridge 1x
Riff B 2x
Riff C 4x