Stop Censorship
 
 

 
 1-9 a b c d e f g h i j k l m n o p q r s t u v w x y z
   Guns N Roses - Cats In The Cradle And A Silver Spoon Tab    

Tuning: 1/2 down!


-----7---7-------|-9p7-------------0-|-----------------|-----------------|----
-----------------|-----10---10---0---|-7---------7-----|-----7-----------|----
-9-----9-----9---|--------9----------|-------9---------|-7-------9-------|----
-9-------------9-|-------------------|-----9---------9-|---9---9---------|----
-7---------------|-------------------|-----------------|-----------------|----
-----------------|-------------------|-----------------|-----------------|----
Intro:

-------12-10-------|-------------------|-------------------|------------------
-------------12-11-|-10----------------|-------------------|------------------
-------------------|------12---9-------|------11---9-------|------------------
-------------------|-------------------|-12----------------|------------------
-------------------|-------------------|-------------------|------------------
-------------------|-------------------|-------------------|------------------


-0-------0-----0-|-3-3-3-5---3-----|-----5---0-------|-0-0-0-0---0-----|------
-0-------0-----0-|-3-3-3-3---3-----|---5---0---0-----|-0-0-0-0---0-----|------
-1-------1-----1-|-0-0-0-0---0-----|-------------2---|-1-1-1-2---1-----|------
-2-------2-----2-|-0-0-0-0---0-----|---------------2-|-2-2-2-2---2-----|------
-2-------2-----2-|-2-2-2-2---2-----|-0---------------|-2-2-2-2---2-----|------
-0-------0-----0-|-3-3-3-3---3-----|-----------------|-0-0-0-0---0-----|------
Verse 1: (2x)

-----------------|-----------------|-----------------|-----3---0-------|------
-----------------|-----------------|-----3-------3---|-------0---0-----|------
-----7-------7---|-----7-------7---|---0---0---0---0-|---0---------1---|---0--
---7---7---7---7-|---7---7---7---7-|-----------------|---------------2-|------
-5-------4-------|---------0-------|-----------------|-----------------|------
-----------------|-7---------------|-3-------2-------|-0---------------|-3----
Bridge:

-------------|---------0-----0-|---0---0---0-----|----------------------------
-3-------3---|---------0-----0-|---0---0---0-----|----------------------------
---0---0---0-|-----1---1-----2-|---2---2---1-----|----------------------------
-------------|---2---2-2-----2-|---2---2---2-----|----------------------------
-------------|---------2-----2-|---2---2---2-----|----------------------------
-----2-------|-0-------0-----0-|---0---0---0-----|----------------------------


-0---0-0-0---0-0-|-2---2-3---2---3-|-3---3-3-3---3-3-|-0-0-0-0---0-----|-0----
-0---0-0-0---0-0-|-3---3-3---3---3-|-3---3-3-3---3-3-|-2-2-2-3---2-----|-0----
-1---1-1-1---1-1-|-2---2-2---2---2-|-0---0-0-0---0-0-|-2-2-2-2---2-----|-1----
-2---2-2-2---2-2-|-0---0-0---0---0-|-0---0-0-0---0-0-|-2-2-2-2---2-----|-2----
-2---2-2-2---2-2-|-----------------|-2---2-2-2---2-2-|-0-0-0-0---0-----|-2----
-0---0-0-0---0-0-|-----------------|-3---3-3-3---3-3-|-----------------|-0----
Chorus:

-0-0-0---0-0-|-2-2-2-3---2-----|-----------------|---------0-------|----------
-0-0-0---0-0-|-3-3-3-3---3-----|-----3-------3---|-----------0-----|-----3----
-1-1-1---1-1-|-2-2-2-2---2-----|---0---0---0---0-|-----0h1-----1---|---0---0--
-2-2-2---2-2-|-0-0-0-0---0-----|-----------------|---2-----------2-|----------
-2-2-2---2-2-|-----------------|-----------------|-----------------|----------
-0-0-0---0-0-|-----------------|-3-------2-------|-0---------------|-3--------


---------|-0---------------|--------------------------------------------------
-----3---|-0---------------|--------------------------------------------------
---0---0-|-1---------------|--------------------------------------------------
---------|-2---------------|--------------------------------------------------
---------|-2---------------|--------------------------------------------------
-2-------|-0---------------|--------------------------------------------------


-----7---7-------|-9p7-------------0-|-----------------|-----------------|----
-----------------|-----10---10---0---|-7---------7-----|-----7-----------|----
-9-----7-----9---|--------9----------|-------9---------|-7-------9-------|----
-9-------------9-|-------------------|-----9---------9-|---9---9---------|----
-7---------------|-------------------|-----------------|-----------------|----
-----------------|-------------------|-----------------|-----------------|----
Intro to verse 2:


Verse 2: (same as verse 1)


Bridge:


Chorus:


-----7---7-------|-9p7-------------0-|-----------------|-----------------|----
-----------------|-----10---10---0---|-7---------7-----|-----7-----------|----
-9-----9-----9---|--------9----------|-------9---------|-7-------9-------|----
-9-------------9-|-------------------|-----9---------9-|---9---9---------|----
-7---------------|-------------------|-----------------|-----------------|----
-----------------|-------------------|-----------------|-----------------|----
Intro to verse 3:


Verse 3:


-----------------|-----------------|-----------------|-0-------------0-|---0--
-----------------|-----------------|-----3-------3---|-0-------------0-|---0--
-----7-------7---|-----7-------7---|---0---0---0---0-|-1-------------2-|---2--
---7---7---7---7-|---7---7---7---7-|-----------------|-2-------------2-|---2--
-5-------4-------|---------0-------|-----------------|-2-------------2-|---2--
-----------------|-7---------------|-3-------2-------|-0-------------0-|---0--
Bridge:

-0---0-----|------------------------------------------------------------------
-0---0-----|------------------------------------------------------------------
-2---1-----|------------------------------------------------------------------
-2---2-----|------------------------------------------------------------------
-2---2-----|------------------------------------------------------------------
-0---0-----|------------------------------------------------------------------


Chorus:


Interlude: |C| |D B| |E| (2x)


-0-----0---0-0-0-|-3-3-3-5---3-----|-----5---0-------|-0---------------|-0--|-
-0-----0---0-0-0-|-3-3-3-3---3-----|---5---0---0-----|-0---------------|-0--|-
-1-----1---1-1-1-|-0-0-0-0---0-----|-------------2---|-1---------------|-2--|-
-2-----2---2-2-2-|-0-0-0-0---0-----|---------------2-|-2---------------|-2--|-
-2-----2---2-2-2-|-2-2-2-2---2-----|-0---------------|-2---------------|-2--|-
-0-----0---0-0-0-|-3-3-3-3---3-----|-----------------|-0---------------|-0--|-
Verse 4: (2x)

-----------------|-----------------|-----------------|---------0-------|------
-----------------|-----------------|-----3-------3---|-----------0-----|------
-----7-------7---|-----7-------7---|---0---0---0---0-|-----0h1-----1---|---0--
---7---7---7---7-|---7---7---7---7-|-----------------|---2-----------2-|------
-5-------4-------|---------0-------|-----------------|-----------------|------
-----------------|-7---------------|-3-------2-------|-0---------------|-3----
Bridge:

-------------|-0---------------|-----------------|-----------------|----------
-3-------3---|-0---------------|-----------------|-----------------|----------
---0---0---0-|-1---------------|-----------------|-----7-------7---|-----7----
-------------|-2---------------|-----------------|---7---7---7---7-|---7---7--
-------------|-2---------------|-----------------|-5-------4-------|----------
-----2-------|-0---------------|-----------------|-----------------|-7--------


---------|-----------------|-----3---0-------|-----------------|-0------------
---------|-----3-------3---|-------0---0-----|-----3-------3---|-0------------
-----7---|---0---0---0---0-|---0---------1---|---0---0---0---0-|-1------------
---7---7-|-----------------|---------------2-|-----------------|-2------------
-0-------|-----------------|-----------------|-----------------|-2------------
---------|-3-------2-------|-0---------------|-3-------2-------|-0------------


-0-|---0---0---0---0-|--------------------------------------------------------
-0-|---0---0---0---0-|--------------------------------------------------------
-2-|---2---2---2---1-|--------------------------------------------------------
-2-|---2---2---2---2-|--------------------------------------------------------
-2-|---2---2---2---2-|--------------------------------------------------------
-0-|---0---0---0---0-|--------------------------------------------------------


Chorus: (2x)


-----7---7-------|-9p7-------------0-|-----------------|-----------------|----
-----------------|-----10---10---0---|-7---------7-----|-----7-----------|----
-9-----9-----9---|--------9----------|-9-----9---------|-7-------9-------|----
-9-------------9-|-------------------|-9---9---------9-|---9---9-9-------|----
-7---------------|-------------------|-7---------------|---------7-------|----
-----------------|-------------------|-----------------|-----------------|----
Outro: